The Courteeners

home > The Courteeners

The 17th Tab

The Courteeners

Difficulty: nolevelnolevel

by ang%2Dletra

tuner correct add songbook print version text version save to e-mail
chordsukulelecavacokeyboardtabbassdrumsharmonicsflute Guitar Pro
chords

The 17th

	  MAIN PART 

  e|-------4---5----------------------------------------| 
  B|-------5---7-------------0-----------0---------10---| 
  G|-------6---7---------1-------0-----------0-----11---| 
  D|---3---6---7---3\5---2-----------1-----------1\12---| 
  A|---3---4---5---3-5---2------------------------------| 
  E|---1---4---5---1-3----------------------------------| 
  
Riff 1 

  e|------------------------------------------------------| 
  B|------------------------------------------------------| 
  G|------------------------------------------------------| 
  D|---------11---9---7------------9---12---11---11-------| 
  A|---7/9-------------------7/9--------------------------| 
  E|------------------------------------------------------| 

SOLO (REPEAT) 

  e|--17---14---16------------17---14---16----------|---17---14---16----------------14---16-----------| 
  B|---------------17---17-----------------17---17--|----------------17---17------17--------17---17---| 
  G|------------------------------------------------|-------------------------------------------------| 
  D|------------------------------------------------|-------------------------------------------------| 
  A|------------------------------------------------|-------------------------------------------------| 
  E|------------------------------------------------|-------------------------------------------------| 

 *********************************** 

| x   Dead note 
| /   Slide-up 
| pb  Pre-bend 
| ~   Vibrato 
| .   Staccato 
| PM  Palm muting 

*********************************** 
	  

there isn't a video lesson for this song

request
Search Paypal
auto scroll beats size up size down change color hide chords drawings
tab show chords e-chords YouTube Clip e-chords hide all tabs e-chords go to top tab