The Claypool Lennon Delirium

home > The Claypool Lenno...

Blood And Rockets - Movement 1 Saga Of Jack Parsons Tab

The Claypool Lennon Delirium

Difficulty: nolevelnolevel

by hebealmeida

tuner correct add songbook print version text version save to e-mail
chordsukulelecavacokeyboardtabbassdrumsharmonicsflute Guitar Pro
chords

Blood And Rockets - Movement 1 Saga Of Jack Parsons

	  
Intro 

e|--2------3--4----3----2------3---------3----1----0---------3----1----0-----| 
B|--------------------------------3---------------------4-------------------1| 
G|---------------------------------------------------------------------------| 
D|---------------------------------------------------------------------------| 
A|---------------------------------------------------------------------------| 
E|---------------------------------------------------------------------------| 

e|--3------4-------------------1---------------------------------------------| 
B|------------4------4-----------------3-------------------------------------| 
G|---------------------------------------------------------------------------| 
D|---------------------------------------------------------------------------| 
A|---------------------------------------------------------------------------| 
E|---------------------------------------------------------------------------| 


Verse Chords 
{ 
e|---------------------------------------------------------------------------| 
B|----2------2------7------7--------------------2------2---------------------| 
G|----5------5------7------7------5------5------5------5---------------------| 
D|----5------5------7------7------6------6------5------5---------------------| 
A|----3------3------5------5------6------6------3------3---------------------| 
E|--------------------------------4------4-----------------------------------| 

e|---------------------------------------------------------------------------| 
B|----2------2------7------7-------------------------------------------------| 
G|----5------5------7------7------5------5------2------2---------------------| 
D|----5------5------7------7------6------6------3------3---------------------| 
A|----3------3------5------5------6------6------3------3---------------------| 
E|--------------------------------4------4------1------1---------------------| 
                                                                              } {x2} 

Verse Solo Guitar (only second time) 

e|--8---7---6---5---3---2----------------------------------------------------| 
B|---------------------------------------------------------------------------| 
G|---------------------------------------------------------------------------| 
D|---------------------------------------------------------------------------| 
A|---------------------------------------------------------------------------| 
E|---------------------------------------------------------------------------| 

e|--8---7---6---5---3---2----------------------------------------------------| 
B|---------------------------------------------------------------------------| 
G|---------------------------------------------------------------------------| 
D|---------------------------------------------------------------------------| 
A|---------------------------------------------------------------------------| 
E|---------------------------------------------------------------------------| 


Chorus 

e|--------3--------3--------------5--------5---------------3--------3--------| 
B|-----4--------4--------4-----6--------6--------6------4--------4--------4--| 
G|--5--------5--------5-----5--------5--------5------5--------5--------5-----| 
D|---------------------------------------------------------------------------| 
A|---------------------------------------------------------------------------| 
E|---------------------------------------------------------------------------| 

e|--------3-----------3------------------------------------------------------| 
B|-----4-----------4---------------------------------------------------------| 
G|--3--------3--2--------2---------------------------------------------------| 
D|---------------------------------------------------------------------------| 
A|---------------------------------------------------------------------------| 
E|---------------------------------------------------------------------------| 

e|--------3--------3--------------5--------5---------------3--------3--------| 
B|-----4--------4--------4-----6--------6--------6------4--------4--------4--| 
G|--5--------5--------5-----5--------5--------5------5--------5--------5-----| 
D|---------------------------------------------------------------------------| 
A|---------------------------------------------------------------------------| 
E|---------------------------------------------------------------------------| 

e|--------1--------1--------------1--------1---------------------------------| 
B|-----1--------1--------1-----1--------1--------1---------------------------| 
G|--3--------3--------3-----2--------2--------2------------------------------| 
D|---------------------------------------------------------------------------| 
A|---------------------------------------------------------------------------| 
E|---------------------------------------------------------------------------| 


Verse Chords 
{ 
e|---------------------------------------------------------------------------| 
B|----2------2------7------7--------------------2------2---------------------| 
G|----5------5------7------7------5------5------5------5---------------------| 
D|----5------5------7------7------6------6------5------5---------------------| 
A|----3------3------5------5------6------6------3------3---------------------| 
E|--------------------------------4------4-----------------------------------| 

e|---------------------------------------------------------------------------| 
B|----2------2------7------7-------------------------------------------------| 
G|----5------5------7------7------5------5------2------2---------------------| 
D|----5------5------7------7------6------6------3------3---------------------| 
A|----3------3------5------5------6------6------3------3---------------------| 
E|--------------------------------4------4------1------1---------------------| 
                                                                              } x2 (the whole verse) 

Verse Solo Guitar (only second time) 

e|--8---7---6---5---3---2----------------------------------------------------| 
B|---------------------------------------------------------------------------| 
G|---------------------------------------------------------------------------| 
D|---------------------------------------------------------------------------| 
A|---------------------------------------------------------------------------| 
E|---------------------------------------------------------------------------| 

e|---------------------------------------------------------------------------| 
B|---------------------------------------------------------------------------| 
G|--5---7---8---10---12---11-------------------------------------------------| 
D|---------------------------------------------------------------------------| 
A|---------------------------------------------------------------------------| 
E|---------------------------------------------------------------------------| 


Chorus 

e|--------3--------3--------------5--------5---------------3--------3--------| 
B|-----4--------4--------4-----6--------6--------6------4--------4--------4--| 
G|--5--------5--------5-----5--------5--------5------5--------5--------5-----| 
D|---------------------------------------------------------------------------| 
A|---------------------------------------------------------------------------| 
E|---------------------------------------------------------------------------| 

e|--------3-----------3------------------------------------------------------| 
B|-----4-----------4---------------------------------------------------------| 
G|--3--------3--2--------2---------------------------------------------------| 
D|---------------------------------------------------------------------------| 
A|---------------------------------------------------------------------------| 
E|---------------------------------------------------------------------------| 

e|--------3--------3--------------5--------5---------------3--------3--------| 
B|-----4--------4--------4-----6--------6--------6------4--------4--------4--| 
G|--5--------5--------5-----5--------5--------5------5--------5--------5-----| 
D|---------------------------------------------------------------------------| 
A|---------------------------------------------------------------------------| 
E|---------------------------------------------------------------------------| 

e|--------1--------1--------------1--------1---------------------------------| 
B|-----1--------1--------1-----1--------1--------1---------------------------| 
G|--3--------3--------3-----2--------2--------2------------------------------| 
D|---------------------------------------------------------------------------| 
A|---------------------------------------------------------------------------| 
E|---------------------------------------------------------------------------| 


Solo 

e|---------------------------------------------------------------------------| 
B|------------------------------------------------------8-7---11-10------9---| 
G|--8---7-8---7-8---7-8---7--------------------6/7~--------------------------| 
D|--------------------------10---8-10---8-10---------------------------------| 
A|---------------------------------------------------------------------------| 
E|---------------------------------------------------------------------------| 

e|-----------10br11---8-------------------------------------------------/11--| 
B|--9-11---9------------9---9---10-----13\9----13\8-------13---12---11-------| 
G|---------------------------------------------------------------------------| 
D|---------------------------------------------------------------------------| 
A|---------------------------------------------------------------------------| 
E|---------------------------------------------------------------------------| 

e|--10--------------------8---10-8--------------------------8---10-10p8------| 
B|-------10-------10---11------------11-10----10----9----/9------------9-8---| 
G|---------------------------------------------------------------------------| 
D|---------------------------------------------------------------------------| 
A|---------------------------------------------------------------------------| 
E|---------------------------------------------------------------------------| 

e|---------------------------------------------------------------------------| 
B|-----------6---------------------------------------------------------------| 
G|--10-8-----8b10------------------------------------------------------------| 
D|---------------------------------------------------------------------------| 
A|---------------------------------------------------------------------------| 
E|---------------------------------------------------------------------------| 


Chorus 

e|--------3--------3--------------5--------5---------------3--------3--------| 
B|-----4--------4--------4-----6--------6--------6------4--------4--------4--| 
G|--5--------5--------5-----5--------5--------5------5--------5--------5-----| 
D|---------------------------------------------------------------------------| 
A|---------------------------------------------------------------------------| 
E|---------------------------------------------------------------------------| 

e|--------3-----------3------------------------------------------------------| 
B|-----4-----------4---------------------------------------------------------| 
G|--3--------3--2--------2---------------------------------------------------| 
D|---------------------------------------------------------------------------| 
A|---------------------------------------------------------------------------| 
E|---------------------------------------------------------------------------| 

e|--------3--------3--------------5--------5---------------3--------3--------| 
B|-----4--------4--------4-----6--------6--------6------4--------4--------4--| 
G|--5--------5--------5-----5--------5--------5------5--------5--------5-----| 
D|---------------------------------------------------------------------------| 
A|---------------------------------------------------------------------------| 
E|---------------------------------------------------------------------------| 

e|--------1--------1--------------1--------1---------------------------------| 
B|-----1--------1--------1-----1--------1--------1---------------------------| 
G|--3--------3--------3-----2--------2--------2------------------------------| 
D|---------------------------------------------------------------------------| 
A|---------------------------------------------------------------------------| 
E|---------------------------------------------------------------------------|x2 (only the last part) 



*********************************** 

| /   Slide up 
| ~   Vibrato 
| br  Bend release 
| \   Slide down 
| p   Pull-off 
| b   Bend 

*********************************** 
	  

there isn't a video lesson for this song

request
Search
auto scroll beats size up size down change color hide chords drawings
tab show chords e-chords YouTube Clip e-chords hide all tabs e-chords go to top tab