The Clash

Charlie Dont Surf

The Clash

tabs

save to print version add songbook text version e-mail correct tuner
chordsukulelecavacokeyboardtabbassdrumsharmonicaflute Guitar Pro
close

there isn't a video lesson for this song

chords

Charlie Dont Surf

	  		 

RIFF 
----------------------------------------9-10-7--------- 
-7-7-7-7--7--7-10-7---------7-7-7-7--7---------10-7---- 
--------------------9-7-------------------------------- 
------------------------------------------------------- 
------------------------------------------------------- 
------------------------------------------------------- 
 
----------------------------------------10-9---7------- 
-7-7-7-7--7--7-10-7---------7-7-7-7--7-------10--10--7- 
--------------------9-7-------------------------------- 
------------------------------------------------------- 
------------------------------------------------------- 
------------------------------------------------------- 
CHORDS: 
 D     Bm    Em7    F#m7 
-2------2-----3------5------------------------------------- 
-3------3-----3------5------------------------------------- 
-2------4-----4------6------------------------------------- 
-0------4-------------------------------------------------- 
----------------------------------------------------------- 
----------------------------------------------------------- 
 

		  

Full key step upFull key step up
Half key step upHalf key step up
Half key step downHalf key step down
Full key step downFull key step down
auto scroll beats size up size down change color hide chords drawings
tab show chords e-chords YouTube Clip e-chords hide all tabs e-chords go to top tab

share