The Civil Wars

Billie Jean (cover)

The Civil Wars

tabs

by  PAULANTUNES

save to print version add songbook text version e-mail correct tuner
chordsukulelecavacokeyboardtabbassdrumsharmonicaflute Guitar Pro
close

there isn't a video lesson for this song

chords

Billie Jean (cover)

(Michael Jackson)

	  		
INTRO/Chorus: 
e|---------0--------5---0-------0-------------------0--------5---0------0---------------| 
B|---------0--------5---0-------0-------3-----------0--------5---0------0---------------| 
G|-----------0----------------0---0-----4-------------0---------------0---0-------------| 
D|---------------4--------------------4-------------------4-----------------------------| 
A|-------------2--------------------2-------------------2-------------------------------| 
E|--0-----------------------0----------------0----------------------0-------0-----------| 
Verse: 
           she was...                           I said...                I am the 
e|---------0--------5---0-------0---------------0--------5---0-------0-----------------| 
B|---------0--------5---0-------0---------------0--------5---0-------0-----------------| 
G|-----------0----------------0---0---------------0----------------0---0---------------| 
D|---------------4------------------------------------4--------------------------------| 
A|-------------2------------------------------------2----------------------------------| 
E|--0-----------------------0-------0-----0----------------------0-------0-------------| 
VERSE CONTINUED: 
 one...                on the...                           repeat "VERSE CONTINUED" once more 
e|----------------------------------0-------5---0-------0--------------------------------| 
B|----------1p0-----0----1---0------0-------5---0-------0--------------------------------| 
G|----------2-------0----2---0--------0---------------0---0------------------------------| 
D|--------2--------2----------------------4----------------------------------------------| 
A|------0------0-------0----------------2------------------------------------------------| 
E|--------------0----------0---0--------------------0-------0----------------------------| 
Bridge:      C                 Em                       C 
e|---------------------------------------------------------------------------------------| 
B|------1----1----1--------------------------------1----1----1---------------------------| 
G|---------------------------------------------------------------------------------------| 
D|------2----2----2-ring---2----2----2-ring--------2----2----2---------------------------| 
A|------3----3----3--------2----2----2-------------3----3----3---------------------------| 
E|------3----3----3--------------------------------3----3----3---------------------------| 
            Em                C                 Em                 Am 
e|-------------------------------------------------------------------------------| 
B|-----------------------1----1----1---------------------------3----3----3-------| 
G|-------------------------------------------------------------2----2----2-ring--| 
D|----2----2----2--------2----2----2--------2----2----2--------2----2----2-------| 
A|----2----2----2-ring---3----3----3-ring---2----2----2-ring---------------------| 
E|-----------------------3----3----3---------------------------------------------| 
            B 
e|------------------------------------------------------------------------------------| 
B|------------------------------------------------------------------------------------| 
G|----4----4----4---------------------------------------------------------------------| 
D|----4----4----4-ring----------------------------------------------------------------| 
A|----2----2----2---------------------------------------------------------------------| 
E|------------------------------------------------------------------------------------| 
Chorus:                                                                   I am the... 
e|---------0--------5---0-------0-------------------0--------5---0------0---------------| 
B|---------0--------5---0-------0-------3-----------0--------5---0------0---------------| 
G|-----------0----------------0---0-----4-------------0---------------0---0-------------| 
D|---------------4--------------------4-------------------4-----------------------------| 
A|-------------2--------------------2-------------------2-------------------------------| 
E|--0-----------------------0----------------0----------------------0-------0-----------| 
Chorus CONTINUED: 
 one...              the kid...                            repeat "Chorus CONTINUED" once more 
e|----------------------------------0-------5---0-------0--------------------------------| 
B|----------1p0-----0----1---0------0-------5---0-------0--------------------------------| 
G|----------2-------0----2---0--------0---------------0---0------------------------------| 
D|--------2--------2----------------------4----------------------------------------------| 
A|------0------0-------0----------------2------------------------------------------------| 
E|--------------0----------0---0--------------------0-------0----------------------------| 
************************************ 

| /   slide up 
| \   slide down 
| h   hammer-on 
| p   pull-off 
| ~   vibrato 
| +   harmonic 
| x   Mute note 
| b   Bend 
| pb  Pre-bend 
| br  Bend release 
| pbr Pre-bend release 
| brb Bend release bend 

************************************ 
		  

Full key step upFull key step up
Half key step upHalf key step up
Half key step downHalf key step down
Full key step downFull key step down
hide glossary

See also:

tabs Douwe Bob - Mine Again tabs Houndmouth - No One tabs Bad Copy - Metalac tabs The Shouting Matches - I Had A Real Good Lover tabs Twenty One Pilots - March To The Sea tabs Secrets - The Oath
e-chords

Other versions:

tabs Michael Jackson - BILLIE JEAN tabs Sungha Jung - Billie Jean tabs Nonpoint - Billie Jean tabs Michael Jackson - Billie Jean ( ver. 2 ) tabs The Civil Wars - Billie Jean (cover) tabs Michael Jackson - Billie Jean (Fingerstyle)
auto scroll beats size up size down change color hide chords drawings
tab show chords e-chords YouTube Clip e-chords hide all tabs e-chords go to top tab

share