The City Lights

What You Gonna Do?

The City Lights

tabs Easy easy

save to print version add songbook text version e-mail correct tuner
chordsukulelecavacokeyboardtabbassdrumsharmonicaflute Guitar Pro
close

there isn't a video lesson for this song

chords

What You Gonna Do?

	  		Notes: The same four chords are used throughout most 
of the song - you'll need to listen / play along to 
the song to get the strumming patterns correct. Comments 
and corrections welcome. 
 
INTRO: 
E-|----------------------------------------------------|- 
B-|----------------------------------------------------|- 
G-|-8--8--8-8-8----------------------------------------|- 
D-|-8--8--8-8-8--4--4--4-4-4--9--9--9-9-9--6--6--6-6-6-|-(x 2) 
A-|-6--6--6-6-6--4--4--4-4-4--9--9--9-9-9--6--6--6-6-6-|- 
E-|--------------2--2--2-2-2--7--7--7-7-7--4--4--4-4-4-|- 
 
1ST VERSE: 
E-|----------------------------------------------------------------|- 
B-|----------------------------------------------------------------|- 
G-|-8-8-8--8-8-8-8-------------------------------------------------|- 
D-|-8-8-8--8-8-8-8--4-4-4--4-4-4-4--9-9-9--9-9-9-9--6-6-6--6-6-6-6-|-(x 2) 
A-|-6-6-6--6-6-6-6--4-4-4--4-4-4-4--9-9-9--9-9-9-9--6-6-6--6-6-6-6-|- 
E-|-----------------2-2-2--2-2-2-2--7-7-7--7-7-7-7--4-4-4--4-4-4-4-|- 
 
E-|---------------------------|- 
B-|---------------------------|- 
G-|-8-8-8--8------------------|- 
D-|----------4-----9-9-9--9-6-|- 
A-|-6-6-6--6------------------|- 
E-|----------2-----7-7-7--7-4-|- 
 
E-|------------------------|- 
B-|------------------------|- 
G-|-8-8-8--8---------------|- 
D-|----------4-----9-9-9---|- 
A-|-6-6-6--6---------------|- 
E-|----------2-----7-7-7---|- 
 
CHORUS: 
E-|----------------------------------------------------|- 
B-|----------------------------------------------------|- 
G-|-8--8--8-8-8----------------------------------------|- 
D-|-8--8--8-8-8--4--4--4-4-4--9--9--9-9-9--6--6--6-6-6-|-(x 2) 
A-|-6--6--6-6-6--4--4--4-4-4--9--9--9-9-9--6--6--6-6-6-|- 
E-|--------------2--2--2-2-2--7--7--7-7-7--4--4--4-4-4-|- 
 
2ND VERSE: 
E-|----------------------------------------------------------------|- 
B-|----------------------------------------------------------------|- 
G-|-8-8-8--8-8-8-8-------------------------------------------------|- 
D-|-8-8-8--8-8-8-8--4-4-4--4-4-4-4--9-9-9--9-9-9-9--6-6-6--6-6-6-6-|-(x 2) 
A-|-6-6-6--6-6-6-6--4-4-4--4-4-4-4--9-9-9--9-9-9-9--6-6-6--6-6-6-6-|- 
E-|-----------------2-2-2--2-2-2-2--7-7-7--7-7-7-7--4-4-4--4-4-4-4-|- 
 
E-|---------------------------|- 
B-|---------------------------|- 
G-|-8-8-8--8------------------|- 
D-|----------4-----9-9-9--9-6-|-(x 2) 
A-|-6-6-6--6------------------|- 
E-|----------2-----7-7-7--7-4-|- 
 
 
BRIDGE: 
E-|--------------------------------------------------------|- 
B-|--------------------------------------------------------|- 
G-|--------------------------------------------------------|- 
D-|-9--------------8-8--8-8--8-8--8-8---8-8--8-8--8-8--8-8-|- 
A-|-9-let ring-----8-8--8-8--8-8--8-8---8-8--8-8--8-8--8-8-|- 
E-|-7--------------6-6--6-6--6-6--6-6---6-6--6-6--6-6--6-6-|- 
 
E-|-------------------------------------------------|- 
B-|-------------------------------------------------|- 
G-|--------------------------------------8----------|- 
D-|-6--6--8--8--9------------6--6--8--8--8----------|- 
A-|-6--6--8--8--9-let ring---6--6--8--8--6-let ring-|- 
E-|-4--4--6--6--7------------4--4--6--6-------------|- 
 
E-|-------------------------------|- 
B-|-------------------------------|- 
G-|------------------6-6--8-------|- 
D-|-6--6--8-8--9--9--6-6--8-------|- 
A-|-6--6--8-8--9--9--4-4--6-------|- 
E-|-4--4--6-6--7--7---------------|- 
 
E-|------------------------|- 
B-|-8-----7-----7-----4----|- 
G-|-8-----6-----8-----5----|- (x 4) 
D-|-8-----4-----9-----6----|- (I think they might play this song tuned 
A-|------------------------|-  down 1/2 a step, but you can play this bit in standard 
E-|------------------------|-  like this - it sounds fairly close) 
 
LEAD NOTES: 
E-|-11--11---11--11-------|- 
B-|-----------------------|- 
G-|-8---8----8---8--etc---|- 
D-|-----------------------|- 
A-|-----------------------|- 
E-|-----------------------|- 

		  

See also:

tabs Ted Mulry Gang - Jump In My Car tabs Thirsty Merc - Someday, Someday tabs Grinspoon - Chemical Heart tabs The Saints - Stranded tabs Powderfinger - My Happiness tabs Ed Kuepper - By The Way
e-chords

Other versions:

tabs The City Lights - What You Gonna Do?
auto scroll beats size up size down change color hide chords drawings
tab show chords e-chords YouTube Clip e-chords hide all tabs e-chords go to top tab

share