The Casualties

No Way Out

The Casualties

tabs

save to print version add songbook text version e-mail correct tuner
chordsukulelecavacokeyboardtabbassdrumsharmonicaflute Guitar Pro
close

there isn't a video lesson for this song

chords

No Way Out

	  		
   Casualties - No Way Out 
 
Intro/Chorus:  
e------------------------------------------------------------------  
B------------------------------------------------------------------  
G------------------------------------------------------------------  
D-----9-9-9-9--10-9----9-9-9-9--10-9----7-7-7-7--------------------  
A-----9-9-9-9---8-7----9-9-9-9---8-7----7-7-9-9-7-7-7-7-7-7-7-7----  
E-----7-7-7-7----------7-7-7-7----------5-5-----9-9-9-9-9-9-9-9----  
NoWayOut! NoWayOut! N O WAY O U T!  
 
Verse:  
e------------------------------------------------------------------  
B------------------------------------------------------------------  
G------------------------------------------------------------------  
D-----9-7-9-9-7-9-9-9-9-9-9-9-9---7-7-9-9-7-9-9-9-9-9-9-9-9--------  
A-----9-5-7-7-5-7-7-7-7-7-7-7-7---7-5-9-9-7-9-9-9-9-9-9-9-9--------  
E-----7---------------------------5---7-7-5-7-7-7-7-7-7-7-7--------  
 
Interlude:  
e------------------------------------------------------------------  
B------------------------------------------------------------------  
G------------------------------------------------------------------  
D---9-9-9-9-9-9-9-9-7-7-7-7-7-7-7-7-9-9-9-9-9-9-9-9-9-9-9-9-9-9-9-9  
A---9-9-9-9-9-9-9-9-5-5-5-5-5-5-5-5-7-7-7-7-7-7-7-7-9-9-9-9-9-9-9-9  
E---7-7-7-7-7-7-7-7---------------------------------7-7-7-7-7-7-7-7 
 

		  

See also:

tabs Blink 182 - Carousel tabs Blink 182 - Stay Together 4 the Kids tabs Green Day - Jesus of Suburbia tabs Goo Goo Dolls - Iris (Acoustic) tabs Blink 182 - What´s My Age Again ? tabs Green Day - Wake Me Up When September Ends
e-chords

Other versions:

tabs The Casualties - No Way Out tabs T.S.O.L. - No Way Out tabs The Living End - No Way Out tabs Warpaint - No Way Out tabs Bullet for my Valentine - No Way Out tabs Dope - No Way Out
auto scroll beats size up size down change color hide chords drawings
tab show chords e-chords YouTube Clip e-chords hide all tabs e-chords go to top tab

share