The Burning Hotels

Stuck In The Middle

The Burning Hotels

tabs

by  ROBEPOIEL

save to print version add songbook text version e-mail correct tuner
chordsukulelecavacokeyboardtabbassdrumsharmonicaflute Guitar Pro
close

there isn't a video lesson for this song

chords

Stuck In The Middle

	  		
Intro: 

 
E|-----------------------------------------------------------------------| 
B|-----------------------------------------------------------------------| 
G|-----------------------------------------------------------------------|  X3 
D|-5-5-5-5-5-7-7-7-3-3-3-3-3-3-3-3---------------------------------------| 
A|----------------------------------3-3-3-3-3-3-----2-2-2-2-2-2-2-2------| 
E|----------------------------------------------3-3----------------------| 
 

 
E|-----------------------------------------------------------------------| 
B|-----------------------------------------------------------------------| 
G|-----------------------------------------------------------------------|  alternar 
D|-5-5-5-5-5-7-7-7-3-3-3-3-3-3-3-3---------------------------------------| 
A|----------------------------------3-3-3-3-3-3-3-3-3-3-3-3-3-3-3-3------| 
E|-----------------------------------------------------------------------| 
 

Verso: 

    I got in, you got out...              ...as  u-su-al, I'm stuck... 

 
E|-----------------------------|--------------------------------------------| 
B|-----------------------------|-----------------8--8--8--8-----------------| 
G|-----------------------------|-7-7-7-7-9-9-9-9-------------9--8-9-9-8-----| 
D|-7-7-7-7-10-10-10-10- X3-----|--------------------------------------------|  X3 
A|-----------------------------|--------------------------------------------| 
E|-----------------------------|--------------------------------------------| 
 


 
E|--5----5----5----5----5----5----5----5-------------| 
B|--5----5----5----5----5----5----5----5-------------| 
G|--5----5----5----5----5----5----5----5-------------| 
D|--5----5----5----5----5----5----5----5-------------| 
A|--7----7----7----7----7----7----5----7-------------| 
E|--5----8----5----8----5----8----5----5-------------| 
 


 
E|---------------------------0-------(0)-------0------(0)------------------| 
B|---------------------------0-------(0)-------0------(0)------------------| 
G|---------------------------0- X 4 --9- X 4 --0- X4 --9---  X4  ----------| 
D|---------------------------2-------10--------2------10-------------------| 
A|---------------------------2-------10--------2------10-------------------| 
E|-8---8-8---8-8---8-8-8-3-0-0--------8--------0-------8-------------------| 
 


 
E|------------------------------------------------------8------| 
B|------------------------------------------------------8------| 
G|------------------------------------------------------9------| 
D|--5-5-5-5-5-7-7-7------------------------------------10------| 
A|------------------8-8-8-8-8-8-8-8--------------------10------| 
E|----------------------------------8 (let ring) -------8------| 
		  

See also:

tabs Deep Purple - Demonds Eye tabs Deep Purple - Money Talks tabs Ira! - Eu Quero Sempre Mais (Com Pitty, intro) tabs Albert Hammond Jr - Holiday tabs Deep Purple - Smoke on the water (intro) tabs Deep Purple - Smoke on the Water (ver. 2)
e-chords

Other versions:

tabs Four Year Strong - Stuck In The Middle tabs The Burning Hotels - Stuck In The Middle
auto scroll beats size up size down change color hide chords drawings
tab show chords e-chords YouTube Clip e-chords hide all tabs e-chords go to top tab

share