The Brobecks

home > The Brobecks

Bike Ride Tab

The Brobecks

Difficulty: BeginnerBeginner

by P%21ATD

tuner correct add songbook print version text version save to e-mail
chordsukulelecavacokeyboardtabbassdrumsharmonicsflute Guitar Pro
chords

Bike Ride

  		e|---------------|---------------|---------------|---------------------------| 
B|---------------|---------------|---------------|---------------------------| 
G|---------------|-8--8-8--8-8-8-|--8------------|--8-8-8-8-8-8-8------------| 
D|---------------|-9--9-9--9-9-9-|--9-(short)----|--9-9-9-9-9-9-9--x4--------| 
A|---------------|-7--7-7--7-7-7-|--7------------|--7-7-7-7-7-7-7------------| 
E|---Drum-Intro--|---------------|---------------|---------------------------| 

e|--------------------|-----------|-----------------|------------------------| 
B|-5-5-5-5-5-5-5-5----|-5---------|-----------------|------------------------| 
G|-6-6-6-6-6-6-6-6----|-6---------|-8-8-8-8-8-8-8-8-|-8----------------------| 
D|-7-7-7-7-7-7-7-7-x3-|-7-(short)-|-9-9-9-9-9-9-9-9-|-9-(short)--------------| 
A|-7-7-7-7-7-7-7-7----|-7---------|-7-7-7-7-7-7-7-7-|-7----------------------| 
E|-5-5-5-5-5-5-5-5----|-5---------|-----------------|------------------------| 
				    Constantly					Doing things 

e|-----------------|----------------|-----------------|----------------------| 
B|-----------------|----------------|-5-5-5-5-5-5-5-5-|-5-5-5-5-5-5-5-5------| 
G|-8-8-8-8-8-8-8-8-|-8--------------|-6-6-6-6-6-6-6-6-|-6-6-6-6-6-6-6-6------| 
D|-9-9-9-9-9-9-9-9-|-9-(short)------|-7-7-7-7-7-7-7-7-|-7-7-7-7-7-7-7-7------| 
A|-7-7-7-7-7-7-7-7-|-7--------------|-7-7-7-7-7-7-7-7-|-7-7-7-7-7-7-7-7------| 
E|-----------------|----------------|-5-5-5-5-5-5-5-5-|-5-5-5-5-5-5-5-5------| 
				 That you donít like			   Ridiní Bikes 

e|-----------------|------------|-----------------|--------------------------| 
B|-5-5-5-5-5-5-5-5-|-5----------|-----------------|--------------------------| 
G|-6-6-6-6-6-6-6-6-|-6----------|-8-8-8-8-8-8-8-8-|-8------------------------| 
D|-7-7-7-7-7-7-7-7-|-7-(short)--|-9-9-9-9-9-9-9-9-|-9-(short)----------------| 
A|-7-7-7-7-7-7-7-7-|-7----------|-7-7-7-7-7-7-7-7-|-7------------------------| 
E|-5-5-5-5-5-5-5-5-|-5----------|-----------------|--------------------------| 
			Across the street					On the Can (?) 

e|-----------------|------------|-----------------|--------------------------| 
B|-----------------|------------|-5-5-5-5-5-5-5-5-|-5-5-5-5-5-5-5-5----------| 
G|-8-8-8-8-8-8-8-8-|-8----------|-6-6-6-6-6-6-6-6-|-6-6-6-6-6-6-6-6----------| 
D|-9-9-9-9-9-9-9-9-|-9-(short)--|-7-7-7-7-7-7-7-7-|-7-7-7-7-7-7-7-7----------| 
A|-7-7-7-7-7-7-7-7-|-7----------|-7-7-7-7-7-7-7-7-|-7-7-7-7-7-7-7-7----------| 
E|-----------------|------------|-5-5-5-5-5-5-5-5-|-5-5-5-5-5-5-5-5----------| 
				 Either way 

e|-----------------|-----------------|-----------------|---------------------| 
B|-5-5-5-5-5-5-5-5-|-5-5-5-5-5-5-5-5-|-----------------|---------------------| 
G|-6-6-6-6-6-6-6-6-|-6-6-6-6-6-6-6-6-|-(distortion-on)-|---------------------| 
D|-7-7-7-7-7-7-7-7-|-7-7-7-7-7-7-7-7-|-7-7-7-7-7-7-7-7-|-9-9-9-9-9-9-9-9-----| 
A|-7-7-7-7-7-7-7-7-|-7-7-7-7-7-7-7-7-|-7-7-7-7-7-7-7-7-|-9-9-9-9-9-9-9-9-----| 
E|-5-5-5-5-5-5-5-5-|-5-5-5-5-5-5-5-5-|-5-5-5-5-5-5-5-5-|-7-7-7-7-7-7-7-7-----| 
					Well Im in hell,     Iíve got to tell    somebody 

e|-------------------------|-------------------------|-----------------------| 
B|-------------------------|-------------------------|-----------------------| 
G|-------------------------|-------------------------|-----------------------| 
D|-11-11-11-11-11-11-11-11-|-14-14-14-14-14-14-14-14-|-7-7-7-7-7-7-7-7-------| 
A|-11-11-11-11-11-11-11-11-|-14-14-14-14-14-14-14-14-|-7-7-7-7-7-7-7-7-------| 
E|-9--9--9--9--9--9--9--9--|-12-12-12-12-12-12-12-12-|-5-5-5-5-5-5-5-5-------| 
  Now								Im     in hell, Iíve got to 

e|-----------------|-------------------------|-------------------------------| 
B|-----------------|-------------------------|-------------------------------| 
G|-----------------|-------------------------|-------------------------------| 
D|-9-9-9-9-9-9-9-9-|-11-11-11-11-11-11-11-11-|-14-14-14-14-14-14-14-14-------| 
A|-9-9-9-9-9-9-9-9-|-11-11-11-11-11-11-11-11-|-14-14-14-14-14-14-14-14-------| 
E|-7-7-7-7-7-7-7-7-|-9--9--9--9--9--9--9--9--|-12-12-12-12-12-12-12-12-------| 
  Tell   somebody	 Now									Im in 

e|-----------------|-----------------|-------------------|-------------------| 
B|-----------------|-----------------|-------------------|-------------------| 
G|-----------------|-----------------|-------------------|-------------------| 
D|-7-7-7-7-7-7-7-7-|-9-9-9-9-9-9-9-9-|-14-------13-------|-11------9---------| 
A|-7-7-7-7-7-7-7-7-|-9-9-9-9-9-9-9-9-|-14-------13-------|-11------9---------| 
E|-5-5-5-5-5-5-5-5-|-7-7-7-7-7-7-7-7-|-12-------11-------|-9-------7---------| 
  Hell,  Iíve got to tell somebody    Now_______owww_______oww  	o Im in 

e|-----------------|-----------------|-------------------------|-------------| 
B|-----------------|-----------------|-------------------------|-------------| 
G|-----------------|-----------------|-------------------------|-------------| 
D|-7-7-7-7-7-7-7-7-|-9-9-9-9-9-9-9-9-|-------------------------|-------------| 
A|-7-7-7-7-7-7-7-7-|-9-9-9-9-9-9-9-9-|-14-14-14-14-14-14-14-14-|-14----------| 
E|-5-5-5-5-5-5-5-5-|-7-7-7-7-7-7-7-7-|-12-12-12-12-12-12-12-12-|-12-(short)--| 
  Hell,& Iíve got to tell somebody    now					  Baa___ baa__ 

e|-----------------|-------------|-----------------|-----------| 
B|-(distortion-off)|-------------|-----------------|-----------| 
G|-8-8-8-8-8-8-8-8-|-8-----------|-8-8-8-8-8-8-8-8-|-8---------| 
D|-9-9-9-9-9-9-9-9-|-9-(short)---|-9-9-9-9-9-9-9-9-|-9-(short)-| 
A|-7-7-7-7-7-7-7-7-|-7-----------|-7-7-7-7-7-7-7-7-|-7---------| 
E|-----------------|-------------|-----------------|-----------| 
  Baa____________	 Baa__ baa__ Baa____			Baa_ Baa_ Ba__ 

e|-----------------|-----------------|-----------------|---------------------| 
B|-5-5-5-5-5-5-5-5-|-5-5-5-5-5-5-5-5-|-5-5-5-5-5-5-5-5-|-5-------------------| 
G|-6-6-6-6-6-6-6-6-|-6-6-6-6-6-6-6-6-|-6-6-6-6-6-6-6-6-|-6-------------------| 
D|-7-7-7-7-7-7-7-7-|-7-7-7-7-7-7-7-7-|-7-7-7-7-7-7-7-7-|-7-(short)-----------| 
A|-7-7-7-7-7-7-7-7-|-7-7-7-7-7-7-7-7-|-7-7-7-7-7-7-7-7-|-7-------------------| 
E|-5-5-5-5-5-5-5-5-|-5-5-5-5-5-5-5-5-|-5-5-5-5-5-5-5-5-|-5-------------------| 
				Baa__ baa__ baa_______				Chase and then (?) 

e|-----------------|------------|-----------------|--------------------------| 
B|-----------------|------------|-----------------|--------------------------| 
G|-8-8-8-8-8-8-8-8-|-8----------|-8-8-8-8-8-8-8-8-|-8------------------------| 
D|-9-9-9-9-9-9-9-9-|-9-(short)--|-9-9-9-9-9-9-9-9-|-9-(short)----------------| 
A|-7-7-7-7-7-7-7-7-|-7----------|-7-7-7-7-7-7-7-7-|-7------------------------| 
E|-----------------|------------|-----------------|--------------------------| 
				  Many things					Talked too much 

e|-----------------|-----------------|-----------------|---------------------| 
B|-5-5-5-5-5-5-5-5-|-5-5-5-5-5-5-5-5-|-5-5-5-5-5-5-5-5-|-5-------------------| 
G|-6-6-6-6-6-6-6-6-|-6-6-6-6-6-6-6-6-|-6-6-6-6-6-6-6-6-|-6-------------------| 
D|-7-7-7-7-7-7-7-7-|-7-7-7-7-7-7-7-7-|-7-7-7-7-7-7-7-7-|-7-(short)-----------| 
A|-7-7-7-7-7-7-7-7-|-7-7-7-7-7-7-7-7-|-7-7-7-7-7-7-7-7-|-7-------------------| 
E|-5-5-5-5-5-5-5-5-|-5-5-5-5-5-5-5-5-|-5-5-5-5-5-5-5-5-|-5-------------------| 
					But I donít mind				Ridiní Bikes 

e|-----------------|------------|-----------------|--------------------------| 
B|-----------------|------------|-----------------|--------------------------| 
G|-8-8-8-8-8-8-8-8-|-8----------|-8-8-8-8-8-8-8-8-|-8------------------------| 
D|-9-9-9-9-9-9-9-9-|-9-(short)--|-9-9-9-9-9-9-9-9-|-9-(short)----------------| 
A|-7-7-7-7-7-7-7-7-|-7----------|-7-7-7-7-7-7-7-7-|-7------------------------| 
E|-----------------|------------|-----------------|--------------------------| 
				Across the street				On the can (?) 

e|-----------------|-----------------|-----------------|---------------------| 
B|-5-5-5-5-5-5-5-5-|-5-5-5-5-5-5-5-5-|-5-5-5-5-5-5-5-5-|-5-5-5-5-5-5-5-5-----| 
G|-6-6-6-6-6-6-6-6-|-6-6-6-6-6-6-6-6-|-6-6-6-6-6-6-6-6-|-6-6-6-6-6-6-6-6-----| 
D|-7-7-7-7-7-7-7-7-|-7-7-7-7-7-7-7-7-|-7-7-7-7-7-7-7-7-|-7-7-7-7-7-7-7-7-----| 
A|-7-7-7-7-7-7-7-7-|-7-7-7-7-7-7-7-7-|-7-7-7-7-7-7-7-7-|-7-7-7-7-7-7-7-7-----| 
E|-5-5-5-5-5-5-5-5-|-5-5-5-5-5-5-5-5-|-5-5-5-5-5-5-5-5-|-5-5-5-5-5-5-5-5-----| 
				Either way							O Im in 

e|-----------------|-----------------|---------------------------------------| 
B|--(distortion-on)|-----------------|---------------------------------------| 
G|-----------------|-----------------|---------------------------------------| 
D|-7-7-7-7-7-7-7-7-|-9-9-9-9-9-9-9-9-|-11-11-11-11-11-11-11-11---------------| 
A|-7-7-7-7-7-7-7-7-|-9-9-9-9-9-9-9-9-|-11-11-11-11-11-11-11-11---------------| 
E|-5-5-5-5-5-5-5-5-|-7-7-7-7-7-7-7-7-|-9--9--9--9--9--9--9--9----------------| 
  Hell, Iíve got to tell    somebody  now 

e|-------------------------|-----------------|-------------------------------| 
B|-------------------------|-----------------|-------------------------------| 
G|-------------------------|-----------------|-------------------------------| 
D|-14-14-14-14-14-14-14-14-|-7-7-7-7-7-7-7-7-|-9-9-9-9-9-9-9-9---------------| 
A|-14-14-14-14-14-14-14-14-|-7-7-7-7-7-7-7-7-|-9-9-9-9-9-9-9-9---------------| 
E|-12-12-12-12-12-12-12-12-|-5-5-5-5-5-5-5-5-|-7-7-7-7-7-7-7-7---------------| 
       Im     in             hell, Iíve got to tell somebody 

e|-------------------------|-------------------------------------------------| 
B|-------------------------|-------------------------------------------------| 
G|-------------------------|-------------------------------------------------| 
D|-11-11-11-11-11-11-11-11-|-14-14-14-14-14-14-14-14-------------------------| 
A|-11-11-11-11-11-11-11-11-|-14-14-14-14-14-14-14-14-------------------------| 
E|-9--9--9--9--9--9--9--9--|-12-12-12-12-12-12-12-12-------------------------| 
  Now						Im 			in 

e|-----------------|-----------------|-------------------|-------------------| 
B|-----------------|-----------------|-------------------|-------------------| 
G|-----------------|-----------------|-------------------|-------------------| 
D|-7-7-7-7-7-7-7-7-|-9-9-9-9-9-9-9-9-|-14-------13-------|-11------9---------| 
A|-7-7-7-7-7-7-7-7-|-9-9-9-9-9-9-9-9-|-14-------13-------|-11------9---------| 
E|-5-5-5-5-5-5-5-5-|-7-7-7-7-7-7-7-7-|-12-------11-------|-9-------7---------| 
  Hell,  Iíve got to tell somebody    Now_______owww_______oww  	o Im in 

e|-----------------|-----------------|-------------------------|-------------| 
B|-----------------|-----------------|-------------------------|-------------| 
G|-----------------|-----------------|-------------------------|-------------| 
D|-7-7-7-7-7-7-7-7-|-9-9-9-9-9-9-9-9-|-------------------------|-------------| 
A|-7-7-7-7-7-7-7-7-|-9-9-9-9-9-9-9-9-|-14-14-14-14-14-14-14-14-|-14----------| 
E|-5-5-5-5-5-5-5-5-|-7-7-7-7-7-7-7-7-|-12-12-12-12-12-12-12-12-|-12-(short)--| 
  Hell,& Iíve got to tell somebody    now						Alright cmon 

e|-----------|-----------|------------|--------------------------------------| 
B|-----------|-----------|------------|--------------------------------------| 
G|-----------|-----------|------------|--------------------------------------| 
D|-7---------|/9---------|/14---------|--------------------------------------| 
A|-7---------|/9---------|/14---------|--------------------------------------| 
E|-5---------|/7---------|/12---------|-(12-11-10-9-8-7)---------------------| 

e|-----------|-----------|------------|--------------------------------------| 
B|-----------|-----------|------------|--------------------------------------| 
G|-----------|-----------|------------|--------------------------------------| 
D|-7---------|/9---------|/14---------|--------------------------------------| 
A|-7---------|/9---------|/14---------|--------------------------------------| 
E|-5---------|/7---------|/12---------|-(12-11-10-9-8-7)---------------------| 

e|-----------|-----------|------------|--------------------------------------| 
B|-----------|-----------|------------|--------------------------------------| 
G|-----------|-----------|------------|--------------------------------------| 
D|-7---------|/9---------|/14---------|-4------------------------------------| 
A|-7---------|/9---------|/14---------|-4------------------------------------| 
E|-5---------|/7---------|/12---------|-2------------------------------------| 

e|-----------|-----------|------------|--------------------------------------| 
B|-----------|-----------|------------|--------------------------------------| 
G|-----------|-----------|------------|--------------------------------------| 
D|-7---------|/9---------|/14---------|--------------------------------------| 
A|-7---------|/9---------|/14---------|--------------------------------------| 
E|-5---------|/7---------|/12---------|--------------------------------------| 
													O Im in 

e|-----------------|-----------------|---------------------------------------| 
B|-----------------|-----------------|---------------------------------------| 
G|-----------------|-----------------|---------------------------------------| 
D|-7-7-7-7-7-7-7-7-|-9-9-9-9-9-9-9-9-|-11-11-11-11-11-11-11-11---------------| 
A|-7-7-7-7-7-7-7-7-|-9-9-9-9-9-9-9-9-|-11-11-11-11-11-11-11-11---------------| 
E|-5-5-5-5-5-5-5-5-|-7-7-7-7-7-7-7-7-|-9--9--9--9--9--9--9--9----------------| 
  Hell, Iíve got to tell    somebody  now 

e|-------------------------|-----------------|-------------------------------| 
B|-------------------------|-----------------|-------------------------------| 
G|-------------------------|-----------------|-------------------------------| 
D|-14-14-14-14-14-14-14-14-|-7-7-7-7-7-7-7-7-|-9-9-9-9-9-9-9-9---------------| 
A|-14-14-14-14-14-14-14-14-|-7-7-7-7-7-7-7-7-|-9-9-9-9-9-9-9-9---------------| 
E|-12-12-12-12-12-12-12-12-|-5-5-5-5-5-5-5-5-|-7-7-7-7-7-7-7-7---------------| 
       Im     in             hell, Iíve got to tell somebody 

e|-------------------------|-------------------------------------------------| 
B|-------------------------|-------------------------------------------------| 
G|-------------------------|-------------------------------------------------| 
D|-11-11-11-11-11-11-11-11-|-14-14-14-14-14-14-14-14-------------------------| 
A|-11-11-11-11-11-11-11-11-|-14-14-14-14-14-14-14-14-------------------------| 
E|-9--9--9--9--9--9--9--9--|-12-12-12-12-12-12-12-12-------------------------| 
  Now						Im 			in 

e|-----------------|-----------------|-------------------|-------------------| 
B|-----------------|-----------------|-------------------|-------------------| 
G|-----------------|-----------------|-------------------|-------------------| 
D|-7-7-7-7-7-7-7-7-|-9-9-9-9-9-9-9-9-|-14-------13-------|-11------9---------| 
A|-7-7-7-7-7-7-7-7-|-9-9-9-9-9-9-9-9-|-14-------13-------|-11------9---------| 
E|-5-5-5-5-5-5-5-5-|-7-7-7-7-7-7-7-7-|-12-------11-------|-9-------7---------| 
  Hell,  Iíve got to tell somebody    Now_______owww_______oww  	o Im in 

e|-----------------|-----------------|-(distortion-off)|---------------------| 
B|-----------------|-----------------|-----------------|---------------------| 
G|-----------------|-----------------|-8-8-8-8-8-8-8-8-|-8-------------------| 
D|-7-7-7-7-7-7-7-7-|-9-9-9-9-9-9-9-9-|-9-9-9-9-9-9-9-9-|-9-(short)-----------| 
A|-7-7-7-7-7-7-7-7-|-9-9-9-9-9-9-9-9-|-7-7-7-7-7-7-7-7-|-7-------------------| 
E|-5-5-5-5-5-5-5-5-|-7-7-7-7-7-7-7-7-|-----------------|---------------------| 
  Hell,& Iíve got to tell somebody    now				Baa_ baa_ baaa___ 


| /  slide up 
|   slide down 
| h  hammer-on 
| p  pull-off 
| ~  vibrato 
| +  harmonic 
| x  Mute note 
	  

Search Paypal
auto scroll beats size up size down change color hide chords drawings
tab show chords e-chords YouTube Clip e-chords hide all tabs e-chords go to top tab