The Blackwater Fever

Night Creeper

The Blackwater Fever

tabs

by  DEIVCAVALCANTI

save to print version add songbook text version e-mail correct tuner
chordsukulelecavacokeyboardtabbassdrumsharmonicaflute Guitar Pro
close

there isn't a video lesson for this song

chords

Night Creeper

	  		


---4------------------------------------------------------------| 
-------7b8r7-----7b8r7---5--------------------------------------| 
-------------4-------------6---(6-4-6)x3------------------------| 
----------------------------------------------------------------| 
---4------------------------------------------2-2h4-4-----------| 
---------------------------------------------4------------------|       x7 


-------------------------------------------------------------------| 
-----------7b--7p5-------------------------------------------------| 
------4-6----------6--------4---4-4-6-6----------------------------| 
--4-6-------------------4-6--6-----------------2----4/6----2-------| 
------------------------------------------2-4----4-------4----4-4--| 
-------------------------------------------------------------------| 

----------------------------------------------------| 
----------------------------------------------------| 
---------------4------------------------------------| 
------2--------4------------------------------------| 
--2-4---4- ----------2-2--4-4-----------------------| 
------------------4---------------------------------| 

-----------------------------------------------------| 
--------------7b-------------------------------------| 
------4-6--6-----4---------------4----4-4h6-6--------| 
--4-6---------------6-------4-6----6-----------------| 
-----------------------------------------------------| 
-----------------------------------------------------| 

----------------------------------------------------| 
----------------------------------------------------| 
----------------------------------------------------| 
-----2-----4b-2--4-2---------2----------------------| 
-2-4----4------------4-----2----4----------2-2h4--4-| 
----------------------------------------4-----------| 
		  

See also:

tabs Beaverloop - Alien DNA-Thumb tabs Colin Hay - Overkill tabs Jimmy Barnes - Chain Of Fools tabs INXS - Dont change tabs Hillsong Music Australia - All day(ver.3) tabs Beaverloop - Funkywrench
e-chords

Other versions:

tabs The Blackwater Fever - Night Creeper
auto scroll beats size up size down change color hide chords drawings
tab show chords e-chords YouTube Clip e-chords hide all tabs e-chords go to top tab

share