The Black Belles

home > The Black Belles

Wishing Well Tab

The Black Belles

Difficulty: nolevelnolevel

by gustsilva

tuner correct add songbook print version text version save to e-mail
chordsukulelecavacokeyboardtabbassdrumsharmonicsflute Guitar Pro
chords

Wishing Well

  		----------------------------------------------------------------------------- 


e|---------------------------| 
B|---------------------------| 
G|-9-9-9-9-7-6-7-9-9-9-------| 
D|-9-9-9-9-7-6-7-9-9-9-5-6-7-| 
A|-7-7-7-7-5-4-5-7-7-7-5-6-7-| 
E|---------------------3-4-5-| 

e|-------| 
B|-99999-| 
G|-77777-| 
D|-77777-| 
A|-------| 
E|-------| 

e|-------------------------------------------| 
B|-------------------------------------------| 
G|-------------------------------------------| 
D|-7-x-x-x-x-x-77-x-x-xxxxxx-77-x-x-x-x-x-77-| 
A|-7-x-x-x-x-x-77-x-x-xxxxxx-77-x-x-x-x-x-77-| 
E|-5-x-x-x-x-x-55-x-x-xxxxxx-55-x-x-x-x-x-55-| 

e|----------------------------------------------------| 
B|----------------------------------------------------| 
G|----------------------------------------------------| 
D|-7-x-x-x-x-x-77-x-x-x-x-x-77-x-x-x-x-x-77-x-x-x-x-x-| 
A|-7-x-x-x-x-x-77-x-x-x-x-x-77-x-x-x-x-x-77-x-x-x-x-x-| 
E|-5-x-x-x-x-x-55-x-x-x-x-x-55-x-x-x-x-x-55-x-x-x-x-x-| 

e|---------------------------------------------| 
B|---------------------------------------99999-| 
G|-8---8-8p7-7p5-5--555-8-7-5-3----------99999-| 
D|---------------------------------------77777-| 
A|---------------------------------------------| 
E|---------------------------------------------| 

e|-----------------------------------------------------| 
B|-----------------------------------------------------| 
G|-----------------------------------------------------| 
D|-7-x-x-x-x-x-77-x-x-xxxxxx-77-x-x-x-x-x-77-x-x-x-x-x-| 
A|-7-x-x-x-x-x-77-x-x-xxxxxx-77-x-x-x-x-x-77-x-x-x-x-x-| 
E|-5-x-x-x-x-x-55-x-x-xxxxxx-55-x-x-x-x-x-55-x-x-x-x-x-| 

e|---------------------------------------------| 
B|---------------------------------------99999-| 
G|-8---8-8p7-7p5-5--555-8-7-5-3----------99999-| 
D|---------------------------------------77777-| 
A|---------------------------------------------| 
E|---------------------------------------------| 

e|------------------------------| 
B|------------------------------| 
G|-7------9---------------------| 
D|-7------9------7------0-5-6-7-| 
A|-5------7------7------0-5-6-7-| 
E|---------------5------0-3-4-5-| 

e|---------------------| 
B|---------------------| 
G|-9-9-9-9-7-6-7-9-9-9-| 
D|-9-9-9-9-7-6-7-9-9-9-| 
A|-7-7-7-7-5-4-5-7-7-7-| 
E|---------------------| 

e|------------------------------------------------------| 
B|------------------------------------------------------| 
G|---6-8-8^v-6~-----------------8-10^v-8------5-8-7-6-5-| 
D|-7-----------5-6-7-7-777-5--9-----------5-7-----------| 
A|------------------------------------------------------| 
E|------------------------------------------------------| 

e|----------------------------------------------------------------------------| 
B|----13-15-15^v-13~--------------------------15-17^v-15-------12-15-14-13-12-| 
G|-14---------------12-13-14-14-141414-12--16------------12-14----------------| 
D|----------------------------------------------------------------------------| 
A|----------------------------------------------------------------------------| 
E|----------------------------------------------------------------------------| 

e|-----------------------------------------------------| 
B|-----------------------------------------------------| 
G|-----------------------------------------------------| 
D|-7-x-x-x-x-x-77-x-x-xxxxxx-77-x-x-x-x-x-77-x-x-x-x-x-| 
A|-7-x-x-x-x-x-77-x-x-xxxxxx-77-x-x-x-x-x-77-x-x-x-x-x-| 
E|-5-x-x-x-x-x-55-x-x-xxxxxx-55-x-x-x-x-x-55-x-x-x-x-x-| 

e|---------------------------------------------| 
B|---------------------------------------99999-| 
G|-8---8-8p7-7p5-5--555-8-7-5-3----------99999-| 
D|---------------------------------------77777-| 
A|---------------------------------------------| 
E|---------------------------------------------| 

e|-----------------------------------------------------| 
B|-----------------------------------------------------| 
G|-----------------------------------------------------| 
D|-7-x-x-x-x-x-77-x-x-xxxxxx-77-x-x-x-x-x-77-x-x-x-x-x-| 
A|-7-x-x-x-x-x-77-x-x-xxxxxx-77-x-x-x-x-x-77-x-x-x-x-x-| 
E|-5-x-x-x-x-x-55-x-x-xxxxxx-55-x-x-x-x-x-55-x-x-x-x-x-| 

e|---------------------------------------------| 
B|---------------------------------------99999-| 
G|-8---8-8p7-7p5-5--555-8-7-5-3----------99999-| 
D|---------------------------------------77777-| 
A|---------------------------------------------| 
E|---------------------------------------------| 

e|------------------------------| 
B|------------------------------| 
G|-7------9---------------------| 
D|-7------9------7------0-5-6-7-| 
A|-5------7------7------0-5-6-7-| 
E|---------------5------0-3-4-5-| 

e|---------------------| 
B|---------------------| 
G|-9-9-9-9-7-6-7-9-9-9-| 
D|-9-9-9-9-7-6-7-9-9-9-| 
A|-7-7-7-7-5-4-5-7-7-7-| 
E|---------------------| 

e|------------------------------------------------------| 
B|------------------------------------------------------| 
G|---6-8-8^v-6~-----------------8-10^v-8------5-8-7-6-5-| 
D|-7-----------5-6-7-7-777-5--9-----------5-7-----------| 
A|------------------------------------------------------| 
E|------------------------------------------------------| 

e|--------------------------------------------------------------------------------| 
B|----13-15-15^v-13~--------------------------15-17^v-15-------12-15-14-13-12-10~~| 
G|-14---------------12-13-14-14-141414-12--16------------12-14--------------------| 
D|--------------------------------------------------------------------------------| 
A|--------------------------------------------------------------------------------| 
E|--------------------------------------------------------------------------------| 

e|-----------------------------------------------------| 
B|-----------------------------------------------------| 
G|-----------------------------------------------------| 
D|-7-x-x-x-x-x-77-x-x-xxxxxx-77-x-x-x-x-x-77-x-x-x-x-x-| 
A|-7-x-x-x-x-x-77-x-x-xxxxxx-77-x-x-x-x-x-77-x-x-x-x-x-| 
E|-5-x-x-x-x-x-55-x-x-xxxxxx-55-x-x-x-x-x-55-x-x-x-x-x-| 

e|---------------------------------------------| 
B|---------------------------------------99999-| 
G|-8---8-8p7-7p5-5--555-8-7-5-3----------99999-| 
D|---------------------------------------77777-| 
A|---------------------------------------------| 
E|---------------------------------------------| 

e|-----------------------------------------------------| 
B|-----------------------------------------------------| 
G|-----------------------------------------------------| 
D|-7-x-x-x-x-x-77-x-x-xxxxxx-77-x-x-x-x-x-77-x-x-x-x-x-| 
A|-7-x-x-x-x-x-77-x-x-xxxxxx-77-x-x-x-x-x-77-x-x-x-x-x-| 
E|-5-x-x-x-x-x-55-x-x-xxxxxx-55-x-x-x-x-x-55-x-x-x-x-x-| 

e|---------------------------------------------| 
B|---------------------------------------99999-| 
G|-8---8-8p7-7p5-5--555-8-7-5-3----------99999-| 
D|---------------------------------------77777-| 
A|---------------------------------------------| 
E|---------------------------------------------| 

e|------------------------------| 
B|------------------------------| 
G|-7------9---------------------| 
D|-7------9------7------0-5-6-7-| 
A|-5------7------7------0-5-6-7-| 
E|---------------5------0-3-4-5-| 

e|---------------------| 
B|---------------------| 
G|-9-9-9-9-7-6-7-9-9-9-| 
D|-9-9-9-9-7-6-7-9-9-9-| 
A|-7-7-7-7-5-4-5-7-7-7-| 
E|---------------------| 

e|---------------------------------------------------| 
B|---------------------------------------------------| 
G|---------------------------------------------------| 
D|-5--7~~~7------------------------------------------| 
A|-5--7~~~7--4-5~-4-5~-0-----------------------------| 
E|-3--5~~~5--------------3---333-5-3-2-0---000-0-2-3-| 


e|------------------------------------------------------| 
B|------------------------------------------------------| 
G|---6-8-8^v-6~-----------------8-10^v-8------5-8-7-6-5-| 
D|-7-----------5-6-7-7-777-5--9-----------5-7-----------| 
A|------------------------------------------------------| 
E|------------------------------------------------------| 

e|-----------------------------------------------------------------| 
B|----13-15-15^v-13~~---13-15-15^v-13~~---13-15-15^v-13~~----------| 
G|-14----------------14----------------14--------------------------| 
D|--------------------------------------------------------7--7-7-7-| 
A|--------------------------------------------------------7--7-7-7-| 
E|--------------------------------------------------------5--5-5-5-| 
	  

Search Paypal
auto scroll beats size up size down change color hide chords drawings
tab show chords e-chords YouTube Clip e-chords hide all tabs e-chords go to top tab