The Birthday Massacre

Pins Needles

The Birthday Massacre

tabs

by  SABRJOAO

save to print version add songbook text version e-mail correct tuner
chordsukulelecavacokeyboardtabbassdrumsharmonicaflute Guitar Pro
close

there isn't a video lesson for this song

chords

Pins Needles

	  		

Intro x2 

e|------------------------------------------| 
B|------------------------------------------| 
G|------------------------------------------| 
D|0000--000-2-3-0-6666-0000--000-2-3-0-3333-| 
A|0000--000-2-3-0-6666-0000--000-2-3-0-3333-| 
D|0000--000-2-3-0-6666-0000--000-2-3-0-3333-| 

e|---------------------------------------------| 
B|---------------------------------------------| 
G|---------------------------------------------| 
D|0000--000-2-3-0-6666-0000--00-3-2-0-3-2-0-33-| 
A|0000--000-2-3-0-6666-0000--00-3-2-0-3-2-0-33-| 
D|0000--000-2-3-0-6666-0000--00-3-2-0-3-2-0-33-| 


Verse x1 (Come in at 0:34) 

e|--------8~------------8---10-----10-------------------------------------| 
B|--10------------10-----------8-8----8--11----11----10----10----8-8----8-| 
G|7----10-------7----10---------------------10----10----10----10-----10---| 
D|------------------------------------------------------------------------| 
A|------------------------------------------------------------------------| 
E|------------------------------------------------------------------------| 

e|------------------------------------------------| 
B|11-11-11-11-13-13-13-13-15-15-15-15-18-18-18-18-| 
G|------------------------------------------------| 
D|------------------------------------------------| 
A|------------------------------------------------| 
E|------------------------------------------------| 

e|--------------------------------------------| 
B|10-10-10-10-11-11-11-11-13-13-13-13-8-8-8-8-| 
G|--------------------------------------------| 
D|--------------------------------------------| 
A|--------------------------------------------| 
E|--------------------------------------------| 

e|--------------------------------------------| 
B|15-15-15-15-11-11-11-11-10-10-10-10-6-6-6-6-| 
G|--------------------------------------------| 
D|--------------------------------------------| 
A|--------------------------------------------| 
E|--------------------------------------------| 

e|--------------------------------------------| 
B|13-13-13-13-11-11-11-11-10-10-10-10-8-8-8-8-| 
G|--------------------------------------------| 
D|--------------------------------------------| 
A|--------------------------------------------| 
E|--------------------------------------------| 


Chorus x1 

e|------------------------------------------------------------| 
B|------------------------------------------------------------| 
G|------------------------------------------------------------| 
D|0-0---10-10---3-3---8-8---0-0---10-10---5-5---3333/10101010-| 
A|0-0---10-10---3-3---8-8---0-0---10-10---5-5---3333/10101010-| 
E|0-0---10-10---3-3---8-8---0-0---10-10---5-5---3333/10101010-| 

e|------------------------------------------------------------| 
B|------------------------------------------------------------| 
G|------------------------------------------------------------| 
D|0-0---10-10---3-3---8-8---0-0---10-10---5-5---8888/10101010-| 
A|0-0---10-10---3-3---8-8---0-0---10-10---5-5---8888/10101010-| 
E|0-0---10-10---3-3---8-8---0-0---10-10---5-5---8888/10101010-|  
		  

See also:

tabs Sum 41 - Moron tabs Sum 41 - Mr.Amsterdam tabs Sum 41 - Hyper-Insomnia-para-Condroid tabs The Weeknd - What You Need tabs Black Pistol Fire - Suffocation Blues tabs Sum 41 - Machine Gun
e-chords

Other versions:

tabs The Birthday Massacre - Pins Needles
auto scroll beats size up size down change color hide chords drawings
tab show chords e-chords YouTube Clip e-chords hide all tabs e-chords go to top tab

share with facebook