The Beatles

home > The Beatles

While my guitar gently weeps rhythm Tab

The Beatles

Difficulty: ExpertExpert

by celondir

tuner correct add songbook print version text version save to e-mail
chordsukulelecavacokeyboardtabbassdrumsharmonicsflute Guitar Pro
chords

While my guitar gently weeps rhythm

  		While my guitar gently weeps, rhythm guitar 
 
Goes something like A,A,A,B,B,A,A,B,B? 
 
Section A: 
Am	Am/G	  Am6 	  Fmaj7    Am	       G	      D 
e---------5---------5---------5--------0-------0---------3-------2---------- 
B--------5---------5---------5--------1--------1--------0-------3---------- 
G--------5---------5---------5--------2--------2--------0-------2---------- 
D--------7---------5---------4--------3--------2--------0-------0---------- 
A------------------------------------------------0--------2------------------ 
E------------------------------------------------0--------3------------------- 
 
 
Section B 
	A	Amaj7	      F#m	A	Bm	  E 
e--------0-----------0---------2------------0-------2---------0------------- 
B--------2-----------2---------2------------2-------3---------0------------- 
G--------2-----------1---------2------------2-------4---------1------------- 
D--------2-----------2---------4------------2-------4---------2------------- 
A--------0-----------0---------4------------0-------2---------2-------------- 
E--------0-----------0---------2------------0-------2---------0-------------- 
 
 
 
 

	  

Search Paypal
auto scroll beats size up size down change color hide chords drawings
tab show chords e-chords YouTube Clip e-chords hide all tabs e-chords go to top tab