The Beatles

home > The Beatles

Birthday (solo) Tab

The Beatles

Difficulty: BeginnerBeginner

by redsoxnation

tuner correct add songbook print version text version save to e-mail
chordsukulelecavacokeyboardtabbassdrumsharmonicsflute Guitar Pro
chords

Birthday (solo)

  		E|----------------------| 
B|----------------------| 
G|----------------------| 
D|-----3--5--3----------| 
A|--5--------4-3-1------| 
E|-3-------------3-1----| 
 
E|--------------------------| 
B|--------------------------| 
G|--------3--6--5-3ponof5---| 
D|-----3-5-------------5----| 
A|--5-----------------------| 
E|-3------------------------| 

	  

Search Paypal
auto scroll beats size up size down change color hide chords drawings
tab show chords e-chords YouTube Clip e-chords hide all tabs e-chords go to top tab