The Beards

Born With A Beard

The Beards

tabs

by  TERR_SCHMITZ

save to print version add songbook text version e-mail correct tuner
chordsukulelecavacokeyboardtabbassdrumsharmonicaflute Guitar Pro
close

there isn't a video lesson for this song

chords

Born With A Beard

	  		
Intro 
e|---------------------------------------------------------------------------------| 
B|---2---2-2-2-5---5-5-5-2---2-2-2-3--2--0--2---2-2-2-5---5-5-5-2---2-2-2-3--2--0--| 
G|---2---2-2-2-2---2-2-2-2---2-2-2-2--2--2--2---2-2-2-2---2-2-2-2---2-2-2-2--2--2--| 
D|---2---2-2-2-2---2-2-2-2---2-2-2-2--2--2--2---2-2-2-2---2-2-2-2---2-2-2-2--2--2--| 
A|---0---0-0-0-0---0-0-0-0---0-0-0-0--0--0--0---0-0-0-0---0-0-0-0---0-0-0-0--0--0--| 
E|---------------------------------------------------------------------------------| 


Verse 1 
e|------0---------0----------0---------0----| 
B|---------2----------2---------2---------2-| 
G|------------------------------------------| 
D|----2---------2----------2---------2------| 
A|-0---------0----------0---------0---------| 
E|------------------------------------------| 

e|------0---------0----------0---------0---------1---------1----------1---------1----| 
B|---------2----------2---------2---------2---------2----------2---------2---------2-| 
G|-----------------------------------------------------------------------------------| 
D|----2---------2----------2---------2---------2---------2----------2---------2------| 
A|-0---------0----------0---------0---------0---------0----------0---------0---------| 
E|-----------------------------------------------------------------------------------| 

e|------0---------0----------0---------0---------1---------1---2---2-2-2-0---0-0-0-2~---| 
B|---------2----------2---------2---------2---------2----------2---2-2-2-0---0-0-0-3~---| 
G|-------------------------------------------------------------2---2-2-2-1---1-1-1-2~---| 
D|----2---------2----------2---------2---------2---------2-----4---4-4-4-2---2-2-2-0~---| 
A|-0---------0----------0---------0---------0---------0--------4---4-4-4-2---2-2-2------| 
E|-------------------------------------------------------------2---2-2-2-0---0-0-0------| 


Intro 


Verse 2 
e|------0---------0----------0---------0---------1---------1----------1---------1----| 
B|---------2----------2---------2---------2---------2----------2---------2---------2-| 
G|-----------------------------------------------------------------------------------| 
D|----2---------2----------2---------2---------2---------2----------2---------2------| 
A|-0---------0----------0---------0---------0---------0----------0---------0---------| 
E|-----------------------------------------------------------------------------------| 

e|------0---------0----------0---------0---------1---------1---2---2-2-2-0---0-0-0-2---| 
B|---------2----------2---------2---------2---------2----------2---2-2-2-0---0-0-0-3---| 
G|-------------------------------------------------------------2---2-2-2-1---1-1-1-2---| 
D|----2---------2----------2---------2---------2---------2-----4---4-4-4-2---2-2-2-0---| 
A|-0---------0----------0---------0---------0---------0--------4---4-4-4-2---2-2-2-----| 
E|-------------------------------------------------------------2---2-2-2-0---0-0-0-----| 

e|-2-2-2-2---2-2-2-2---2-2-2-2--2--2--| 
B|-3-3-3-3---3-3-3-3---3-3-3-3--3--3--| 
G|-2-2-2-2---2-2-2-2---2-2-2-2--2--2--| 
D|-0-0-0-0---0-0-0-0---0-0-0-0--0--0--| 
A|------------------------------------| 
E|------------------------------------| 


Chorus 
e|-0---0-0-0-0---0-0-0-0---0-0-0-0---0-0-0-0---0-0-0-0---0-0-0-2---2-2-2-2---2-2-2--| 
B|-2---2-2-2-2---2-2-2-0---0-0-0-0---0-0-0-2---2-2-2-2---2-2-2-3---3-3-3-3---3-3-3--| 
G|-2---2-2-2-2---2-2-2-1---1-1-1-1---1-1-1-2---2-2-2-2---2-2-2-2---2-2-2-2---2-2-2--| 
D|-2---2-2-2-2---2-2-2-2---2-2-2-2---2-2-2-2---2-2-2-2---2-2-2-0---0-0-0-0---0-0-0--| 
A|-0---0-0-0-0---0-0-0-2---2-2-2-2---2-2-2-0---0-0-0-0---0-0-0----------------------| 
E|---------------------0---0-0-0-0---0-0-0------------------------------------------| 

e|-0---0-0-0-0---0-0-0-0---0-0-0-0---0-0-0-2---2-2-2-2---2-2-2-2---2-2-2-2--2--2--| 
B|-2---2-2-2-2---2-2-2-0---0-0-0-0---0-0-0-3---3-3-3-3---3-3-3-3---3-3-3-3--3--3--| 
G|-2---2-2-2-2---2-2-2-1---1-1-1-1---1-1-1-2---2-2-2-2---2-2-2-2---2-2-2-2--2--2--| 
D|-2---2-2-2-2---2-2-2-2---2-2-2-2---2-2-2-0---0-0-0-0---0-0-0-0---0-0-0-0--0--0--| 
A|-0---0-0-0-0---0-0-0-2---2-2-2-2---2-2-2----------------------------------------| 
E|---------------------0---0-0-0-0---0-0-0----------------------------------------| 

e|-0---0-0-0-0---0-0-0-0---0-0-0-0---0-0-0-0---0-0-0-0---0-0-0-2---2-2-2-2---2-2-2--| 
B|-2---2-2-2-2---2-2-2-0---0-0-0-0---0-0-0-2---2-2-2-2---2-2-2-4---4-4-4-4---4-4-4--| 
G|-2---2-2-2-2---2-2-2-1---1-1-1-1---1-1-1-2---2-2-2-2---2-2-2-2---2-2-2-2---2-2-2--| 
D|-2---2-2-2-2---2-2-2-2---2-2-2-2---2-2-2-2---2-2-2-2---2-2-2-4---4-4-4-4---4-4-4--| 
A|-0---0-0-0-0---0-0-0-2---2-2-2-2---2-2-2-0---0-0-0-0---0-0-0-2---2-2-2-2---2-2-2--| 
E|---------------------0---0-0-0-0---0-0-0------------------------------------------| 

e|-2---2-2-2-2---2-2-2-0---0-0-0-0---0-0-0--| 
B|-3---3-3-3-3---3-3-3-0---0-0-0-0---0-0-0--| 
G|-2---2-2-2-2---2-2-2-1---1-1-1-1---1-1-1--| 
D|-0---0-0-0-0---0-0-0-2---2-2-2-2---2-2-2--| 
A|---------------------2---2-2-2-2---2-2-2--| 
E|---------------------0---0-0-0-0---0-0-0--| 


Intro 


Verse 3 (Play Verse 2) 


Chorus 


Bridge 
(Cut off each chord quickly after playing it) 
e|-------------------------------------------------------------------------| 
B|-7--7--7--7--7--7--4--4--4--4--4--4--5--5--5--5--5--5--6--6--6--6--6--6--| 
G|-7--7--7--7--7--7--4--4--4--4--4--4--6--6--6--6--6--6--6--6--6--6--6--6--| 
D|-7--7--7--7--7--7--4--4--4--4--4--4--6--6--6--6--6--6--6--6--6--6--6--6--| 
A|-5--5--5--5--5--5--2--2--2--2--2--2--4--4--4--4--4--4--4--4--4--4--4--4--| 
E|-------------------------------------------------------------------------| 
    
e|-2---2-2-2-2---2-2-2-0---0-0-0-0---0-0-0-2~--| 
B|-2---2-2-2-2---2-2-2-0---0-0-0-0---0-0-0-3~--| 
G|-2---2-2-2-2---2-2-2-1---1-1-1-1---1-1-1-2~--| 
D|-4---4-4-4-4---4-4-4-2---2-2-2-2---2-2-2-0~--| 
A|-4---4-4-4-4---4-4-4-2---2-2-2-2---2-2-2-----| 
E|-2---2-2-2-2---2-2-2-0---0-0-0-0---0-0-0-----| 


Final Verse 
e|-----5---------5---------5---------5---------5---------5---------5---------5-------| 
B|--5----5---------5---------5---------5---------6---------6---------6---------6-----| 
G|----------6---------6---------6---------6---------5---------5---------5---------5--| 
D|-----------------------------------------------------------------------------------| 
A|------------7---------7---------7---------8---------8---------8---------8----------| 
E|-----------------------------------------------------------------------------------| 

e|-----5---------5---------5---------5---------5-----------2---2-2-2-0---0-0-0-2--| 
B|--5----5---------5---------5---------5---------6~--------2---2-2-2-0---0-0-0-3--| 
G|----------6---------6---------6---------6----------------2---2-2-2-1---1-1-1-2--| 
D|---------------------------------------------------------4---4-4-4-2---2-2-2-0--| 
A|------------7---------7---------7---------8--------------4---4-4-4-2---2-2-2----| 
E|---------------------------------------------------------2---2-2-2-0---0-0-0----| 

e|-2-2-2-2---2-2-2-3--3--3--3--3--2--| 
B|-3-3-3-3---3-3-3-3--3--3--3--3--3--| 
G|-2-2-2-2---2-2-2-2--2--2--2--2--2--| 
D|-0-0-0-0---0-0-0-0--0--0--0--0--0--| 
A|-----------------------------------| 
E|-----------------------------------| 


Chorus 


Chorus Key Change 
e|-1--1--1--1--1--1--1--1--1--1--1--1--1--1--1--1--| 
B|-1--1--1--1--1--1--1--1--1--1--1--1--1--1--1--1--| 
G|-2--2--2--2--2--2--2--2--2--2--2--2--2--2--2--2--| 
D|-3--3--3--3--3--3--3--3--3--3--3--3--3--3--3--3--| 
A|-3--3--3--3--3--3--3--3--3--3--3--3--3--3--3--3--| 
E|-1--1--1--1--1--1--1--1--1--1--1--1--1--1--1--1--| 

e|-0---0-0-0-0---0-0-0-3---3-3-3-3---3-3-3-0---0-0-0-0---0-0-0-1---1-1-1-1---1-1-1--| 
B|-1---1-1-1-1---1-1-1-3---3-3-3-3---3-3-3-1---1-1-1-1---1-1-1-1---1-1-1-1---1-1-1--| 
G|-0---0-0-0-0---0-0-0-0---0-0-0-0---0-0-0-0---0-0-0-0---0-0-0-2---2-2-2-2---2-2-2--| 
D|-2---2-2-2-2---2-2-2-0---0-0-0-0---0-0-0-2---2-2-2-2---2-2-2-3---3-3-3-3---3-3-3--| 
A|-3---3-3-3-3---3-3-3-2---2-2-2-2---2-2-2-3---3-3-3-3---3-3-3-3---3-3-3-3---3-3-3--| 
E|---------------------3---3-3-3-3---3-3-3---------------------1---1-1-1-1---1-1-1--| 

e|-0---0-0-0-0---0-0-0-3---3-3-3-3---3-3-3-1---1-1-1-1---1-1-1-1---1-1-1-1--1--1--| 
B|-1---1-1-1-1---1-1-1-3---3-3-3-3---3-3-3-1---1-1-1-1---1-1-1-1---1-1-1-1--1--1--| 
G|-0---0-0-0-0---0-0-0-0---0-0-0-0---0-0-0-2---2-2-2-2---2-2-2-2---2-2-2-2--2--2--| 
D|-2---2-2-2-2---2-2-2-0---0-0-0-0---0-0-0-3---3-3-3-3---3-3-3-3---3-3-3-3--3--3--| 
A|-3---3-3-3-3---3-3-3-2---2-2-2-2---2-2-2-3---3-3-3-3---3-3-3-3---3-3-3-3--3--3--| 
E|---------------------3---3-3-3-3---3-3-3-1---1-1-1-1---1-1-1-1---1-1-1-1--1--1--| 

e|-0---0-0-0-0---0-0-0-3---3-3-3-3---3-3-3-0---0-0-0-0---0-0-0-2---2-2-2-2---2-2-2--| 
B|-1---1-1-1-1---1-1-1-3---3-3-3-3---3-3-3-1---1-1-1-1---1-1-1-3---3-3-3-3---3-3-3--| 
G|-0---0-0-0-0---0-0-0-0---0-0-0-0---0-0-0-0---0-0-0-0---0-0-0-2---2-2-2-2---2-2-2--| 
D|-2---2-2-2-2---2-2-2-0---0-0-0-0---0-0-0-2---2-2-2-2---2-2-2-0---0-0-0-0---0-0-0--| 
A|-3---3-3-3-3---3-3-3-2---2-2-2-2---2-2-2-3---3-3-3-3---3-3-3----------------------| 
E|---------------------3---3-3-3-3---3-3-3------------------------------------------| 

e|-1---1-1-1-1---1-1-1-3---3-3-3-3---3-3-3-0---0-0-0-0---0-0-0-2---2-2-2-2---2-2-2--| 
B|-1---1-1-1-1---1-1-1-3---3-3-3-3---3-3-3-1---1-1-1-1---1-1-1-3---3-3-3-3---3-3-3--| 
G|-2---2-2-2-2---2-2-2-0---0-0-0-0---0-0-0-2---2-2-2-2---2-2-2-2---2-2-2-2---2-2-2--| 
D|-3---3-3-3-3---3-3-3-0---0-0-0-0---0-0-0-2---2-2-2-2---2-2-2-0---0-0-0-0---0-0-0--| 
A|-3---3-3-3-3---3-3-3-2---2-2-2-2---2-2-2-0---0-0-0-0---0-0-0----------------------| 
E|-1---1-1-1-1---1-1-1-3---3-3-3-3---3-3-3------------------------------------------| 

e|-1---1-1-1-1--1--1--3---3-3-3-3---3-3-3-0---0-0-0-0---0-0-0-0---0-0-0-1---0----------0~---| 
B|-1---1-1-1-1--1--1--3---3-3-3-3---3-3-3-1---1-1-1-1---1-1-1-1---1-1-1-1---1----3-----1~---| 
G|-2---2-2-2-2--2--2--0---0-0-0-0---0-0-0-0---0-0-0-0---0-0-0-2---2-2-2-2---0----2-----0~---| 
D|-3---3-3-3-3--3--3--0---0-0-0-0---0-0-0-2---2-2-2-0---0-0-0-2---2-2-2-3---2----0-----2~---| 
A|-3---3-3-3-3--3--3--2---2-2-2-2---2-2-2-3---3-3-3-2---2-2-2-0---0-0-0-3---3----------3~---| 
E|-1---1-1-1-1--1--1--3---3-3-3-3---3-3-3-------------------------------1-------------------| 
             *  *  *  
		  

auto scroll beats size up size down change color hide chords drawings
tab show chords e-chords YouTube Clip e-chords hide all tabs e-chords go to top tab

share