The Association

home > The Association

Six Man Band Tab

The Association

Difficulty: nolevelnolevel

by alyslima

tuner correct add songbook print version text version save to e-mail
chordsukulelecavacokeyboardtabbassdrumsharmonicsflute Guitar Pro
chords

Six Man Band

  		Intro 
  Lead Guitar 
e|-5--------------------12----------------| 
B|-6----------------------13--------------| 
G|-5---------------12-14----14------------| 
D|-7-----12-1212-15-----------15-12-10-12-|x2 
A|-5--------------------------------------| 
E|-x--------------------------------------| 
  Rhythm Guitar 
e|-------5-55--55-55--5-55--55-55---------| 
B|-------6-66--68-68--6-66--68-68---------| 
G|-------5-55--55-55--5-55--55-55---------| 
D|-------7-77--77-77--7-77--77-77---------| 
A|-------5-55--55-55--5-55--55-55---------| 
E|-------x-xx--xx-xx--x-xx--xx-xx---------| 


verse 1 
  N.C.   Dm 
e|-------5-55--55-55--5-55--55-55--1-11--1-11--5-55--5-55--3-33--5-55--------------------| 
B|-------6-66--68-68--6-66--68-68--3-33--1-11--5-55--6-66--5-55--5-55--------------------| 
G|-------5-55--55-55--5-55--55-55--3-33--2-22--6-66--5-55--5-55--6-66--------------------| 
D|-------7-77--77-77--7-77--77-77--3-33--3-33--7-77--7-77--5-55--7-77--------------------| 
A|-------5-55--55-55--5-55--55-55--1-11--3-33--7-77--5-55--3-33--7-77--------------------| 
E|-------x-xx--xx-xx--x-xx--xx-xx--x-xx--1-11--5-55--x-xx--x-xx--5-55--------------------| 



************************************ 

| x  Dead note 

************************************ 
	  

Full key step upFull key step up
Half key step upHalf key step up
Half key step downHalf key step down
Full key step downFull key step down
Search Paypal
auto scroll beats size up size down change color hide chords drawings
tab show chords e-chords YouTube Clip e-chords hide all tabs e-chords go to top tab