The Animals

home > The Animals

San francisco nigths Tab

The Animals

Difficulty: IntermediateIntermediate

by CDF+da+guitarra

tuner correct add songbook print version text version save to e-mail
chordsukulelecavacokeyboardtabbassdrumsharmonicsflute Guitar Pro
chords

San francisco nigths

  		 
*artista: The animals 
*música : San Francisco nights 
 
A música é + ou - isso: 
 
e|------------|-----------------| 
b|------------|-----------------| 
G|------------|-------------5~~-| 
D|-2--5--4--2-|-2--5--4--2------| 
A|-2--5--4--2-|-2--5--4--2------| 
E|----3--2----|----3--2---------| 
 
Essa parte se repete 8x durante a narração: 
 
e|--------------|---------------| 
b|--------------|---------------| 
G|-----------9--|---------7--9--| 
D|--5--7--9-----|--11--9--------| 
A|--------------|---------------| 
E|--------------|---------------| 
 
Narração: 
 
This following program is dedicated to the city and people of San  
Francisco  
Who may not know it, but they are beautiful - and so is their city  
This is a very personal song, so if the viewer cannot understand it   
particularly those of you who are European residents - save up  
all your bread and fly Trans-Love Airways to San Francisco, USA  
Then maybe you'll understand the song  
It will be worth it - if not for the sake of this song  
But for the sake of your own peace of mind 
 
Baixo: Feito antes da introdução. 
 
G|-------| 
D|-------| 
A|---0-2-| 
E|-3-----| 
 
Introdução: 
 
  
e|-8-----7/8-7-----5/7-5----3--3/5-3----3-|  
B|-----8---------8--------5-----------5---|  
G|---9---------9--------------------------|  
D|----------------------------------------|  
A|----------------------------------------|  
E|----------------------------------------|  
 
Canto 1: 
  
e|-8/10-8------7/8-7-----5/7-5----3--3/5-3----3-|  
B|----------8---------8---------5-----------5---|  
G|--------9---------9---------------------------|  
D|----------------------------------------------|  
A|----------------------------------------------|  
E|----------------------------------------------|   
      C              Em  Am           G  
      Strobe light's beam  creates dreams  
	 
  
e|-8/10-8------7/8-7-----5/7-5----3--3/5-3----3-|  
B|----------8---------8---------5-----------5---|  
G|--------9---------9---------------------------|  
D|----------------------------------------------|  
A|----------------------------------------------|  
E|----------------------------------------------|  
         C       Em    Am          G   
         Walls move    minds  do  too  
 
 
e|---10----10----------13----13--12----------------|  
B|---09--9-------------12-12-----11----8---8---8---|  
G|---11----------------13--------13-9--------9-----|  
D|--------------------------------------10------10-|  
A|-------------------------------------------------|  
E|-------------------------------------------------|  
     D                  F        C  
     On a warm San Franciscan night  
 
 
e|------------10---10-------13----13--12-----------|  
B|-8----8-----09-9----------12-12-----11----8------|  
G|-9--9---9---11------------13--------13--9---9----|  
D|-10----------------------------------------------|  
A|-------------------------------------------------|  
E|-------------------------------------------------|  
   C          Dm            F         C  
   Old child, young child, feel all   right  
 
 
e|---10----10----------13----13--12----------------|  
B|---09--9-------------12-12-----11----8---8-------|  
G|---11----------------13--------13-9--------9-----|  
D|--------------------------------------10---------|  
A|-------------------------------------------------|  
E|-------------------------------------------------|        
      D                 F        C  
     On a warm San Franciscan   night  
 
  
Canto 2: 
  
e|--8/10-8/10-8------7/8-7-------5/7-5----3--3/5-3----3-|  
B|----------------8----------8---------5------------5---|  
G|--------------9---------9-----------------------------|  
D|------------------------------------------------------|  
A|------------------------------------------------------|  
E|------------------------------------------------------|   
               C        Em     Am          G 
	       Angels   sing,    leather  wings  
 
	 
e|-8/10-8------7/8-7-----5/7-5----3--3/5-3----3---|  
B|----------8---------8---------5-----------5---5-|  
G|--------9---------9-----------------------------|  
D|------------------------------------------------|  
A|------------------------------------------------|  
E|------------------------------------------------| 
        C          Em         Am         G 
        Jeans of blue, Harley-Davidsons too  
	 
 
e|---10----10----------13----13--12----------------|  
B|---09--9-------------12-12-----11----8---8---8---|  
G|---11----------------13--------13-9--------9-----|  
D|--------------------------------------10------10-|  
A|-------------------------------------------------|  
E|-------------------------------------------------|  
     D                  F        C  
     On a warm San Franciscan night  
 
 
e|------------10---10-------13----13--12-----------|  
B|-8----8-----09-9----------12-12-----11----8------|  
G|-9--9---9---11------------13--------13--9---9----|  
D|-10----------------------------------------------|  
A|-------------------------------------------------|  
E|-------------------------------------------------|  
   C            Dm           F        C  
   Old anjels, young anjels, feel all right  
 
 
e|---10----10----------13----13--12-----------------|  
B|---09--9-------------12-12-----11----8---8-----8--|  
G|---11----------------13--------13-9--------9-9----|  
D|--------------------------------------10----------|  
A|--------------------------------------------------|  
E|--------------------------------------------------|        
      D                 F        C  
     On a warm San Franciscan   night  
 
	  
Ponte:  
 
e|-08----8-------8------| 
b|-09--------9-------6--| 
G|-10-------------------| 
D|----------------------| 
A|----------------------| 
E|----------------------| 
   Fm  
   wasn't born there 
 
e|--------------------------------| 
b|-5-------------0--------8-5-----| 
G|----------------------------7---| 
D|--------------------------------| 
A|--------------------------------| 
E|--------------------------------|  
   Em 
   Perhaps I'll die there  
 
e|-5--------5-----------5------7---7---7----7----| 
b|-6---6----------6---------8----6------------8--| 
G|-5----------5------5---------------7-----------| 
D|---------------------------------------9-------| 
A|-----------------------------------------------| 
E|-----------------------------------------------| 
   F                        G    F   Dm  B    G 
   There's noplace left to go  
  
 
San Francisco...  
 
 
Baixo: Feito antes de começar o solo. 
 
G|-------| 
D|-------| 
A|---0-2-| 
E|-3-----| 
 
Solo :Este solo é feito com duas guitarras que fazem a 1° e a 2° parte juntos.  
 
guitarra 1: Primeira parte 
 
   C                     Em                                          
e|-12-13-15-13-12-13-15-13----12-13-12----12-13-12-|  
b|-------------------------15----------15----------|  
G|-------------------------------------------------|  
D|-------------------------------------------------|  
A|-------------------------------------------------|  
E|-------------------------------------------------|  
  
guitarra 2: Primeira parte  
              
E|-------12----------12----------------------------|  
B|-13-15----15-13-15----15-12-13-15-13-12-13-15-13-|  
G|-------------------------------------------------|  
D|-------------------------------------------------|  
A|-------------------------------------------------|  
E|-------------------------------------------------|  
  
  
guitarra 1: Segunda parte  
  
   Am                      G                                   
e|-------12----------12----------------------------|  
b|-13-15----15-13-15----15-12----------------------|  
G|-------------------------12----------------------|  
D|-------------------------------------------------|  
A|-------------------------------------------------|  
E|-------------------------------------------------|  
  
guitarra 2: Segunda parte  
  
e|-------------------------------------------------|  
b|----13-15-13----13----13-------------------------|  
G|-14----------14----------12----------------------|  
D|-------------------------12----------------------|  
A|-------------------------------------------------|  
E|-------------------------------------------------|  
 
Depois do Solo: 
 
e|-------------------------------------------------| 
b|-3--8--7--6--10--5---3--6-5-1-08----8--6/4--1----| 
G|----7--7-----09--6-6----5-5-0-10-10----7/5--0----| 
D|-------------------------------------------------| 
A|-------------------------------------------------| 
E|-------------------------------------------------| 
 
 
e|--------------------------------------------------| 
b|-8-8/10--7-11/10-6-8-8---8----3-3-6-6--5/6/5--3-5-| 
G|---9/11--------------9-9---9--4-4-7-7--5/6/5--5-5-| 
D|--------------------------------------------------| 
A|--------------------------------------------------| 
E|--------------------------------------------------| 
 
 
Canto 3: 
  
e|-8/10-8------7/8-7-----5/7-5----3--3/5-3----3-|  
B|----------8---------8---------5-----------5---|  
G|--------9---------9---------------------------|  
D|----------------------------------------------|  
A|----------------------------------------------|  
E|----------------------------------------------|   
           C       Em     Am          G 
           Cop's face is filled with haight  
 
  
e|-8/10-8------7/8-7-----5/7-5----3--3/5-3----3-|  
B|----------8---------8---------5-----------5---|  
G|--------9---------9---------------------------|  
D|----------------------------------------------|  
A|----------------------------------------------|  
E|----------------------------------------------|   
    C         Em      Am                  G 
    Heavens above, he's on a street called Love  
 
 
e|---10----10----------13----13--12----------------|  
B|---09--9-------------12-12-----11----8---8---8---|  
G|---11----------------13--------13-9--------9-----|  
D|--------------------------------------10------10-|  
A|-------------------------------------------------|  
E|-------------------------------------------------|  
     D                 F         C     
     When   will  they ever    learn  
 
 
e|------------10---10-------13----13--12-----------|  
B|-8----8-----09-9----------12-12-----11----8------|  
G|-9--9---9---11------------13--------13--9---9----|  
D|-10----------------------------------------------|  
A|-------------------------------------------------|  
E|-------------------------------------------------|  
   C          Dm            F         C  
   Old cop,   young cop     feel all  right  
 
 
e|---10----10----------13----13--12-----------------|  
B|---09--9-------------12-12-----11----8---8-----8--|  
G|---11----------------13--------13-9--------9-9----|  
D|--------------------------------------10----------|  
A|--------------------------------------------------|  
E|--------------------------------------------------|        
      D                 F        C  
     On a warm San Franciscan   night  
 
Ponte 2:  
  
 
e|-08----8-------8---------| 
b|-09--------9----------6--| 
G|-10----------------------| 
D|-------------------------| 
A|-------------------------| 
E|-------------------------| 
   Fm  
   The children are cool 
 
e|--------------0-----------------| 
b|-5---------------------8-5------| 
G|----------------------------7---| 
D|--------------------------------| 
A|--------------------------------| 
E|--------------------------------|  
   Em 
   They don't raise fools  
 
e|-5--------5-----------5------------7---7---7----7----| 
b|-6---6----------6---------------8----6------------8--| 
G|-5----------5------5---------------------7-----------| 
D|----------------------------------------------9------| 
A|-----------------------------------------------------| 
E|-----------------------------------------------------| 
   F                              G    F   Dm   B   G  
   It's an American dream Includes Indians, too    
 
 
G|-------| 
D|-------| 
A|---0-2-| 
E|-3-----| 
 
 
Solo : 
 
guitarra 1: Primeira parte 
 
   C                     Em                                          
e|-12-13-15-13-12-13-15-13----12-13-12----12-13-12-|  
b|-------------------------15----------15----------|  
G|-------------------------------------------------|  
D|-------------------------------------------------|  
A|-------------------------------------------------|  
E|-------------------------------------------------|  
  
guitarra 2: Primeira parte  
              
E|-------12----------12----------------------------|  
B|-13-15----15-13-15----15-12-13-15-13-12-13-15-13-|  
G|-------------------------------------------------|  
D|-------------------------------------------------|  
A|-------------------------------------------------|  
E|-------------------------------------------------|  
  
  
guitarra 1: Segunda parte  
  
   Am                      G                                   
e|-------12----------12----------------------------|  
b|-13-15----15-13-15----15-12----------------------|  
G|-------------------------12----------------------|  
D|-------------------------------------------------|  
A|-------------------------------------------------|  
E|-------------------------------------------------|  
  
guitarra 2: Segunda parte  
  
e|-------------------------------------------------|  
b|----13-15-13----13----13-------------------------|  
G|-14----------14----------12----------------------|  
D|-------------------------12----------------------|  
A|-------------------------------------------------|  
E|-------------------------------------------------|  
 
Final: 
	 
e|-------------------------------------------------| 
b|-8/6--3-3--8/10--10--6--6/4--1--1--1/5......-----| 
G|-9/7----0--9/11--11-----7/5--0-----0-------------| 
D|-------------------------------------------------| 
A|-------------------------------------------------| 
E|-------------------------------------------------| 
 
F:       G:       Am:      Em:      C:       D:       Dm:      B: 
e|--1--| e|--3--| e|--3--| e|--7--| e|--3--| e|--5--| e|--5--| e|--2--| 
b|--1--| b|--3--| b|--3--| b|--8--| b|--5--| b|--7--| b|--6--| B|--4--| 
G|--2--| G|--4--| G|--3--| G|--9--| G|--5--| G|--7--| G|--7--| G|--4--| 
D|--3--| D|--5--| D|--5--| D|--9--| D|--5--| D|--7--| D|--7--| D|--4--| 
A|--3--| A|--5--| A|--5--| A|--7--| A|--3--| A|--5--| A|--5--| A|--2--| 
E|--1--| E|--3--| E|--3--| E|--7--| E|--3--| E|--5--| E|--5--| E|--2--| 
 
 
 
 
 
 
 
 

	  

Full key step upFull key step up
Half key step upHalf key step up
Half key step downHalf key step down
Full key step downFull key step down
Search Paypal
auto scroll beats size up size down change color hide chords drawings
tab show chords e-chords YouTube Clip e-chords hide all tabs e-chords go to top tab