The Angels

Can't Shake It

The Angels

tabs Easy easy

save to print version add songbook text version e-mail correct tuner
chordsukulelecavacokeyboardtabbassdrumsharmonicaflute Guitar Pro
close

there isn't a video lesson for this song

chords

Can't Shake It

	  		Transcribed by: Peter Schmidt 
Email: [email protected] 
 
------------------------------------------------------------------------------ 
------------------------------------------------------------------------------ 
------------------------------------------------------------------------------ 
--------------------------7v--------------------------7v---------------------- 
-9--9-----9----9--9---7h9-----9--9-----9----9--9--7h9------------------------- 
-7--7-----7----7--7-----------7--7-----7----7--7------------------------------ 
                                                                               
 
------------------------------------------------------------------------------ 
------------------------------------------------------------------------------ 
------------------------------------------------------------------------------ 
--------------------------7v--------------------------7v---------------------- 
-9--9-----9----9--9---7h9-----9--9-----9----9--9--7h9------------------------- 
-7--7-----7----7--7-----------7--7-----7----7--7------------------------------ 
                                                                               
 
------------------------------------------------------------------------------ 
------------------------------------------------------------------------------ 
------------------------------------------------------------------------------ 
--------------------------7v---------------------------5v--------------------- 
-9--9-----9----9--9---7h9-----7--7-----7----7--7---5h7------------------------ 
-7--7-----7----7--7-----------5--5-----5----5--5------------------------------ 
 Young man in morocco         buys a diamond ring                              
 
------------------------------------------------------------------------------ 
------------------------------------------------------------------------------ 
------------------------------------------------------------------------------ 
-9----9---9------9---9-9-----9---9----------------------------------9v-------- 
-7----7---7------7---7-7-----7---7---9---11---9----11-9---11---9h11----------- 
-------------------------------------7---7----7----7--7---7------------------- 
 Takes it across the water   just to see what luck it brings                   
 
------------------------------------------------------------------------------ 
------------------------------------------------------------------------------ 
------------------------------------------------------------------------------ 
---------------------7v-------------7v------------------------5v-----------5v- 
---------9-----9-7-9-----9--9--7--9--------------7-----7--5-7-----7--7-5-7---- 
---------7-----7---------7--7--------------------5-----5----------5--5-------- 
 I can't shake it                        I can't shake it                      
 
------------------------------------------------------------------------------ 
------------------------------------------------------------------------------ 
------------------------------------------------------------------------------ 
---------9-----9--9--9--9--9--9--8--7v-7--9----------------------------------- 
---------7-----7--7--7--7--7--------------------10----7v---------------------- 
------------------------------------------------------------------------------ 
 I can't shake it                         Can't shake it                       
 
 

		  

See also:

tabs Colin Hay - I Just Don't Think I'll Ever Get Over You tabs The Beautiful Girls - Blackbird tabs Augie March - Asleep In Perfection tabs The Atlantics - Bombora tabs Men At Work - Overkill (bestt) tabs Hunters And Collectors - Holy Grail
e-chords

Other versions:

tabs The Angels - Can't Shake It
auto scroll beats size up size down change color hide chords drawings
tab show chords e-chords YouTube Clip e-chords hide all tabs e-chords go to top tab

share