The Androids

Do It With Madonna

The Androids

tabs

save to print version add songbook text version e-mail correct tuner
chordsukulelecavacokeyboardtabbassdrumsharmonicaflute Guitar Pro
close

there isn't a video lesson for this song

chords

Do It With Madonna

	  		(Henwood / McKenzie) 
 
tabbed by Clinton Hoy 
 
I haven't named each chord every time is appears in each riff just the first time and  
i've roughly tried tab the rhythm, see how you go. 
 
One point to note is that in the filmclip, and live you will probably notice that  
Tim has a capo on the first fret, but don't be fooled. As best as i can figure, his guitar  
is tuned one half step down, but the detuning is negated by having a capo on the first fret.  
It's much easier to play in standard without a capo... 
 
RIFF 1 
 
     G5         G/E                                                            
E||------------------------|------------------------|------------------------| 
B||------------------------|------------------------|------------------------| 
G||------------------------|------------------------|------------------------| 
D||--5----5---5-5--5----5--|--5----5---5-5--5----5--|--5----5---5-5--5----5--| 
A||--5----5---5-5--5----5--|--5----5---5-5--5----5--|--5----5---5-5--5----5--| 
E||--3----3---3-0--3----0--|--3----3---3-0--3----0--|--3----3---3-0--3----0--| 
 
 
                           C5            Gsus4/E         
|------------------------|------------------------------| 
|------------------------|------------------------------| 
|------------------------|------------------------------| 
|--5----5---5-5--5----5--|--10----10---10-10--10----10--| 
|--5----5---5-5--5----5--|--10----10---10-10--10----10--| 
|--3----3---3-0--3----0--|--8-----8----8--0---8-----0---| 
 
 
  Bb5        Bb/E                                                      
|------------------------|------------------------|-------------------| 
|------------------------|------------------------|-------------------| 
|------------------------|------------------------|-------------------| 
|--8----8---8-8--8----8--|--5----5---5-5--5----5--|--5----------------| 
|--8----8---8-8--8----8--|--5----5---5-5--5----5--|--5----------------| 
|--6----6---6-0--6----6--|--3----3---3-0--3----0--|--3----------------| 
 
 
RIFF 2 
 
  G5                       F5                       E5                      
|------------------------|------------------------|------------------------| 
|------------------------|------------------------|------------------------| 
|------------------------|------------------------|------------------------| 
|--5----5---5-5--5----5--|--3----3---3-3--3----3--|--2----2---2-2--2----2--| 
|--5----5---5-5--5----5--|--3----3---3-3--3----3--|--2----2---2-2--2----2--| 
|--3----3---3-3--3----3--|--1----1---1-1--1----1--|--0----0---0-0--0----0--| 
 
 
  D                        Cadd9                    G/Bb                    
|--2----2---2-2--2----2--|--3----3---3-3--3----3--|--3----3---3-3--3----3--| 
|--3----3---3-3--3----3--|--3----3---3-3--3----3--|--3----3---3-3--3----3--| 
|--2----2---2-2--2----2--|--0----0---0-0--0----0--|--0----0---0-0--0----0--| 
|--0----0---0-0--0----0--|--2----2---2-2--2----2--|--x----x---x-x--x----x--| 
|------------------------|--3----3---3-3--3----3--|--1----1---1-1--1----1--| 
|------------------------|------------------------|------------------------| 
 
 
                                               
------------------------|-------------------|| 
------------------------|-------------------|| 
------------------------|-------------------|| 
--5----5---5-5--5----5--|--5----------------|| 
--5----5---5-5--5----5--|--5----------------|| 
--3----3---3-0--3----0--|--3----------------|| 
 
 
w. riff 1 
You know Christina's got the body 
She really likes to spin and twirl 
But when she's flirting with the camera 
You know she's just a little girl 
Now Pink is cute but still a baby 
And she talks with attitude 
She has some spunks for a young lady 
But what I'd really like to do 
 
w. riff 2 
I'd love to do it with Madonna 
She's what a woman's supposed to be 
Oh Madonna can you do it with me? 
 
w. riff 1 
When Britney sings it sounds amazing 
I like her belly and her butt 
But how would you like to be with her? 
She's always hanging with her mum. 
 
w. riff 2 (x2) 
I'd rather do it with Madonna 
She's what a woman's supposed to be 
The only girl I'll ever need 
Madonna do it with me 
I'd rather do it with Madonna 
She's really got me on my knees 
The only girl I'll ever need 
Madonna, do it with me 
 
w. 1st part of riff 1 
Oh Madonna Ooooo Ooooo Oooooo Madonna, 
 
w. riff 1 
I'd really like to be with Kylie 
I think she's really really hott 
I wonder if I could get Kylie 
 
w. riff 2 
To wanna do it with Madonna 
I'd rather do it with Madonna 
She's really got me on my knees 
Oh Madonna won't you do it with me? 
I'd rather do it with Madonna 
She's what a woman's supposed to be 
Oh Madonna come and do it with me 
I'd rather do it with Madonna 
She's really got me 
Have you seen her where she's wearing the cowboy hat and she's kicking the dirt 
I wanna do it with 
Oooo Madonna 
 
Lyrics Courtesy: 
http://www.lyricstop.com 

		  

Full key step upFull key step up
Half key step upHalf key step up
Half key step downHalf key step down
Full key step downFull key step down
hide glossary

See also:

tabs INXS - Dont change tabs Australian Crawl - Things Don't Seem tabs The Beautiful Girls - Freedom (part 2) tabs Hillsong Music Australia - In the Mystery tabs Gerling - The Deer In You tabs Boom Crash Opera - Onion Skin
e-chords

Other versions:

tabs The Androids - Do It With Madonna
auto scroll beats size up size down change color hide chords drawings
tab show chords e-chords YouTube Clip e-chords hide all tabs e-chords go to top tab

share