The Amity Affliction

15 Piecees Of Flare

The Amity Affliction

tabs

by  PETERPRITZ

save to print version add songbook text version e-mail correct tuner
chordsukulelecavacokeyboardtabbassdrumsharmonicaflute Guitar Pro
close

there isn't a video lesson for this song

chords

15 Piecees Of Flare

	  		

Intro 0:14 
e|-----------------------------------------------------| 
B|-----------------------------------------------------| 
G|--7--5--7--5-----7--5--7--5--------------------------| 
D|--7--7--7--7-----7--7--7--7--------------------------| 
A|--5--5--5--5-----5--5--5--5--------------------------|	 
D|-----------------------------------------------------| 

First Verse 
0:17 
e|-----------------------------------------------------| 
B|-----------------------------------------------------| 
G|--7--5--7--5-----7--5--7--5-----5--5--5--5---\-------| 
D|--7--7--7--7-----7--7--7--7-----5--5--5--5----2x-----| 
A|--5--5--5--5-----5--5--5--5-----3--3--3--3---/-------|	\ 
D|-----------------------------------------------------|	 \ 
								Repeat 
e|-----------------------------------------------------|	 / 
B|-----------------------------------------------------|	/ 
G|17-17-17----14-14-14----17-17-17----10-10-10-10-10-10|  
D|x--x--x-----x--x--x-----x--x--x-----x--x--x--x--x--x-| <--2x 
A|15-15-15----12-12-12----15-15-15----12-12-12-12-12-12| 
D|-----------------------------------------------------| 

First Chorus 
0:41 
e|-----------------------------------------------------| 
B|-----------------------------------------------------| 
G|-----------------------------------------------------| 
D|-8----10----0-------5----7---\----------0------------| 
A|-8----10----0-------5----7----2x--------0-palm mute--| 
D|-8----10----0-------5----7---/----------0------------| 

Verse 
1:16 
e|-----------------------------------------------------| 
B|-----------------------------------------------------| 
G|-----------------------------------------------------| 
D|--0-----8----10---\--------0-------------------------| 
A|--0-----8----10----2x------0-------------------------| 
D|--0-----8----10---/--------0-------------------------| 

Second Chorus 
1:49 
e|-----------------------------------------------------| 
B|-----------------------------------------------------| 
G|-----------------------------------------------------| 
D|-8----10-----0-----5----7---\------------8-----------| 
A|-8----10-----0-----5----7----2x----------8-----------| 
D|-8----10-----0-----5----7---/------------8-----------| 

Interlude 
2:17 
e|-----------------------------------------------------| 
B|--11--------3----------11----------------------------| 
G|--10--------2----------10----------------------------| 
D|--8---------0----------8-----------------------------| 
A|--8---------0----------8-----------------------------| 
D|--8---------0----------8-----------------------------|   <<<< 
	I could figure out the strumming here. so i just played this 


2:43 
Breakdown/Solo 
e|-----------------------------------------------------| 
B|-----------------------------------------------------| 
G|--------------7-----------------7--------------------| <--repeat 4x 
D|-----3-----3-----3-----3-----3-----3-----3-----------| 
A|--5-----5-----------5-----5-----------5--------------| 
D|-----------------------------------------------------| 

e|-----13p12------------------13p12--------------------| 
B|-------------13-------------------13-----------------| 
G|----------------14---12----------------14---12-------| 
D|-------------------------------------------------15--| 
A|-----------------------------------------------------|\ 
D|-----------------------------------------------------| \ 
							 repeat 
e|--15-15--17-17-------------15-15--17-17--------------| / 
B|-----------------15--13-------------------15-15--18--|/ 
G|-----------------------------------------------------| 
D|-----------------------------------------------------| 
A|-----------------------------------------------------| 
D|-----------------------------------------------------| 

e|---------------15p13-----------18p17-------17--------| 
B|------13--15-----------15-------------18-------------| 
G|--15-------------------------------------------------| 
D|-----------------------------------------------------| 
A|-----------------------------------------------------| 
D|-----------------------------------------------------|\ 
							 \ 
e|--17p15------15--------------------------------------|  \ 
B|--------18---------18--17---15--13--13--13h15--------| 
G|-----------------------------------------------------|    repeat 
D|-----------------------------------------------------| 
A|-----------------------------------------------------| 
D|-----------------------------------------------------|  / 
							 / 
e|20-20-15-15--15h17--17-17-20--20--15--15--15h17-17-17|/  
B|-----------------------------------------------------| 
G|-----------------------------------------------------| 
D|-----------------------------------------------------| 
A|-----------------------------------------------------| 
D|-----------------------------------------------------| 

e|---22--| 
B|-------| 
G|-------| <------ last note 
D|-------| 
A|-------| 
D|-------| 

Outro 
3:46 
e|-----------------------------------------------------|\ 
B|-----------------------------------------------------| \ 
G|-----------------------------------------------------| repeat 
D|--0---\-----0---5--\---------------------------------| / 
A|--0----x2---0---7---x2-------------------------------|/ 
D|--0---/-----0---7--/---------------------------------| 

4:23 
e|-----------------------------------------------------| 
B|-----------------------------------------------------| 
G|-----------------------------------------------------| 
D|--0---\----------------------------------------------| 
A|--0----2x--------------------------------------------| 
D|--0---/----------------------------------------------| 
		  

See also:

tabs INXS - Heaven Sent tabs The Beautiful Girls - Freedom (part 2) tabs Joss Stone - Fell in love with a boy tabs You Am I - Please don`t ask me to smile tabs The Angels - Am I Ever Gonna See Your Face Again tabs Behind Crimson Eyes - This Is The End
e-chords

Other versions:

tabs The Amity Affliction - 15 Piecees Of Flare
auto scroll beats size up size down change color hide chords drawings
tab show chords e-chords YouTube Clip e-chords hide all tabs e-chords go to top tab

share