save to print version add songbook text version e-mail correct tuner
chordsukulelecavacokeyboardtabbassdrumsharmonicaflute Guitar Pro
close

there isn't a video lesson for this song

chords

Polly

Key:  C More
Polly Key GG
Polly Key G#G#
Polly Key AA
Polly Key A#A#(one step down)
Polly Key BB(half step down)
Polly Key CC(original key)
Polly Key C#C#(half step up)
Polly Key DD(one step up)
Polly Key D#D#
Polly Key EE
Polly Key FF
Polly Key F#F#
	  		
Tuning: Standard 

e|---------------------------------------------------------------------------| 
B|---------------------------------------------------------------------------| 
G|---------------------------------------------------------------------------| 
D|-----------------------------BASS INTRO------------------------------------| 
A|---------------------------------------------------------------------------| 
E|---------------------------------------------------------------------------| 

Guitar Intro gtr 1 
e|---------------------------------------------------------------------------| 
B|---------------------------------------------------------------------------| 
G|----5-555555---------------------------------------------------------------| 
D|----5-555555--2-22-222--7-77-777----3--3-----------------------------------| 
A|----3-333333--2-22-222--7-77-777---3--3-3----------------------------------| 
E|--------------0-00-000--5-55-555--1--1---1-1~~-----------------------------| 

Verse .  .  .  .  .  .  .  .   .  .  .  .  .  .  .  . 
e|-----------------------------------------1--1--1--1------------------------| 
B|-----------------------------1--1--1--1--1--1--1--1------------------------| 
G|----5--5--5--5---------------2--2--2--2--2--2--2--2------------------------| 
D|----5--5--5--5--2--2--2--2---2--2--2--2--3--3--3--3------------------------| 
A|----3--3--3--3--2--2--2--2---0--0--0--0--3--3--3--3------------------------| 
E|----------------0--0--0--0---------------1--1--1--1------------------------| 

Pre Chorus guitar 1 
e|---------------------------------------------------------------------------| 
B|---------------------------------------------------------------------------| 
G|----5-----------9----------14---------10-----------------------------------| 
D|----x-----------x----------x----------x------------------------------------| 
A|----3~~~~~~~~~~-7~~~~~~~~~-12~~~~~~~~-8~~~~~~~~----------------------------| X2 
E|---------------------------------------------------------------------------| 

Pre Chorus guitar 2 
e|----0-----------0----------0----------1------------------------------------| 
B|----1-----------0----------1----------1------------------------------------| 
G|----0-----------0----------2----------2------------------------------------| 
D|----2-----------2----------2----------3------------------------------------| 
A|----3-----------2----------0----------3------------------------------------|  
E|----------------0----------------------------------------------------------| X2 

Chorus Guitar 1  
e|---------------------------------------------------------------------------| 
B|---------------------------------------------------------------------------| 
G|----55555555-1212121212121212-1414141414141414----10---10------------------| 
D|----55555555-1212121212121212-1414141414141414--10---10--10----------------| 
A|----33333333-1010101010101010-1212121212121212-8----8------8---------------| 
E|---------------------------------------------------------------------------| 

Chorus Guitar 2 
      C        G        Am       F 
e|---------------------------------------------------------------------------| 
B|---------------------------------------------------------------------------| 
G|----55555555---------------------------------------------------------------| 
D|----55555555-55555555-77777777-33333333------------------------------------| 
A|----33333333-55555555-77777777-33333333------------------------------------| 
E|-------------33333333-55555555-11111111------------------------------------| 

 
Ends on C 
************************************ 

| /   slide up 
| \   slide down 
| h   hammer-on 
| p   pull-off 
| ~   vibrato 
| +   harmonic 
| x   Mute note 
| b   Bend 
| pb  Pre-bend 
| br  Bend release 
| pbr Pre-bend release 
| brb Bend release bend 

************************************ 
		  

Full key step upFull key step up
Half key step upHalf key step up
Half key step downHalf key step down
Full key step downFull key step down
hide glossary

See also:

tabs Deep Purple - Smoke on the water (ver. 3) tabs Albert Hammond Jr - Holiday tabs Deep Purple - When a Blind man cries tabs Deep Purple - The Unwritten Law tabs Deep Purple - Highway Star tabs Ira! - Núcleo Base ( Acústico MTV)
e-chords

Other versions:

tabs Nirvana - Polly tabs The Accidents - Polly tabs Nirvana - Polly (ver. 2) tabs Nirvana - Polly (ver. 3)
auto scroll beats size up size down change color hide chords drawings
tab show chords e-chords YouTube Clip e-chords hide all tabs e-chords go to top tab

share