The 1975

home > The 1975

Girls Tab

The 1975

Difficulty: nolevelnolevel

by carlluz

tuner correct add songbook print version text version save to e-mail
chordsukulelecavacokeyboardtabbassdrumsharmonicsflute Guitar Pro
chords

Girls

Key:  C More
Girls Key GG
Girls Key G#G#
Girls Key AA
Girls Key A#A#(one step down)
Girls Key BB(half step down)
Girls Key CC(original key)
Girls Key C#C#(half step up)
Girls Key DD(one step up)
Girls Key D#D#
Girls Key EE
Girls Key FF
Girls Key F#F#
  		



Intro 


E|--11--11-------9--9--9--9-------------11--x-11--x-11--x-11---9-----| 
B|--12--12-------11-11-11-11------------12--x-12--x-12--x-12---11----| 
G|--11--11-------11-11-11-11------------11--x-11--x-11--x-11---11----|   x4 
D|--11--11-------9h-11-11-11------------11--x-11--x-11--x-11---9-----| 
A|------------------------------9-11---------------------------------| 
E|-------------------------------------------------------------------| 

After the fourth, finish with... 

E|---11---| 
B|---12---| 
G|---11---| 
D|---11---| 
A|--------| 
E|--------| 

1st Verse 

"Bite your face to spite your nose..." 
E|---11---| 
B|---12---| 
G|---11---| 
D|---11---| 
A|--------| 
E|--------| 

"17 and a half years old..." 
E|---11---| 
B|---12---| 
G|---11---| 
D|---11---| 
A|--------| 
E|--------| 

"Worrying about my brother finding out" 
E|---11---| 
B|---12---| 
G|---11---| 
D|---11---| 
A|--------| 
E|--------| 

"...fun in doing what you're told?" 
E|---11---| 
B|---12---| 
G|---11---| 
D|---11---| 
A|--------| 
E|--------| 

Pre Chorus 

"I said no.." 
E|---11--x-11--x-11--x-11---9-------------------------| 
B|---12--x-12--x-12--x-12---11------------------------| 
G|---11--x-11--x-11--x-11---11------------------------|    x7 
D|---11--x-12--x-11--x-11---9-------------------------| 
A|----------------------------------------------------| 
E|----------------------------------------------------| 

"God help me now..." 
E|---11---| 
B|---12---| 
G|---11---| 
D|---11---| 
A|--------| 
E|--------| 

Chorus 

E|--11--11-------9--9--9--9-------------11--x-11--x-11--x-11---9-----| 
B|--12--12-------11-11-11-11------------12--x-12--x-12--x-12---11----| 
G|--11--11-------11-11-11-11------------11--x-11--x-11--x-11---11----|   x4 
D|--11--11-------9h-11-11-11------------11--x-11--x-11--x-11---9-----| 
A|------------------------------9-11---------------------------------| 
E|-------------------------------------------------------------------| 

2nd Verse 

"Pair of Frozen Hands..." 
E|---11---| 
B|---12---| 
G|---11---| 
D|---11---| 
A|--------| 
E|--------| 

"Oh she's so southern..." 
E|---11---| 
B|---12---| 
G|---11---| 
D|---11---| 
A|--------| 
E|--------| 

"...Tearing of your blouse" 
E|---11---| 
B|---12---| 
G|---11---| 
D|---11---| 
A|--------| 
E|--------| 

"What happened to just messing around?" 
E|---11---| 
B|---12---| 
G|---11---| 
D|---11---| 
A|--------| 
E|--------| 

Pre-Chorus 

E|---11--x-11--x-11--x-11---9-------------------------| 
B|---12--x-12--x-12--x-12---11------------------------| 
G|---11--x-11--x-11--x-11---11------------------------|    x7 
D|---11--x-12--x-11--x-11---9-------------------------| 
A|----------------------------------------------------| 
E|----------------------------------------------------| 

"God help me now..." 
E|---11---| 
B|---12---| 
G|---11---| 
D|---11---| 
A|--------| 
E|--------| 

Chorus 

E|--11--11-------9--9--9--9-------------11--x-11--x-11--x-11---9-----| 
B|--12--12-------11-11-11-11------------12--x-12--x-12--x-12---11----| 
G|--11--11-------11-11-11-11------------11--x-11--x-11--x-11---11----|   x4 
D|--11--11-------9h-11-11-11------------11--x-11--x-11--x-11---9-----| 
A|------------------------------9-11---------------------------------| 
E|-------------------------------------------------------------------| 

Bridge 

"Told her from the start..." 
E|----------------------------11---| 
B|----------------------------12---| 
G|----------------------------11---| 
D|----------------------------11---| 
A|---------------------------------| 
E|---------------------------------| 

"Destined to be hard..." 
E|----------------------------11---| 
B|----------------------------12---| 
G|----------------------------11---| 
D|----------------------------11---| 
A|---------------------------------| 
E|---------------------------------| 

"Told her from the start...       ...Ill break your heart" 
E|----------------------------11---| 
B|----------------------------12---| 
G|----------------------------11---| 
D|----------------------------11---| 
A|---------------------------------| 
E|---------------------------------| 

"Destined to be hard...           ...Break your heart" 
E|----------------------------11---| 
B|----------------------------12---| 
G|----------------------------11---| 
D|----------------------------11---| 
A|---------------------------------| 
E|---------------------------------| 

Pre-Chorus 

E|---11--x-11--x-11--x-11---9-------------------------| 
B|---12--x-12--x-12--x-12---11------------------------| 
G|---11--x-11--x-11--x-11---11------------------------|    x7 
D|---11--x-12--x-11--x-11---9-------------------------| 
A|----------------------------------------------------| 
E|----------------------------------------------------| 

"God help me now..." 
E|---11---| 
B|---12---| 
G|---11---| 
D|---11---| 
A|--------| 
E|--------| 

Chorus 

E|--11--11-------9--9--9--9-------------11--x-11--x-11--x-11---9-----| 
B|--12--12-------11-11-11-11------------12--x-12--x-12--x-12---11----| 
G|--11--11-------11-11-11-11------------11--x-11--x-11--x-11---11----|   x8 
D|--11--11-------9h-11-11-11------------11--x-11--x-11--x-11---9-----| 
A|------------------------------9-11---------------------------------| 
E|-------------------------------------------------------------------| 

Outro (Keep playing until the end; Approximately 24 times) 

E|---11--x-11--x-11--x-11---9-------------------------| 
B|---12--x-12--x-12--x-12---11------------------------| 
G|---11--x-11--x-11--x-11---11------------------------| 
D|---11--x-12--x-11--x-11---9-------------------------| 
A|----------------------------------------------------| 
E|----------------------------------------------------| 

End with: 

E|---11---| 
B|---12---| 
G|---11---| 
D|---11---| 
A|--------| 
E|--------| 


h - Hammer On 
x - Mute Note 
	  

Search Paypal
auto scroll beats size up size down change color hide chords drawings
tab show chords e-chords YouTube Clip e-chords hide all tabs e-chords go to top tab