The 1975

home > The 1975

Chocolate (acoustic) Tab

The 1975

Difficulty: ExpertExpert

by fernsantana

tuner correct add songbook print version text version save to e-mail
chordsukulelecavacokeyboardtabbassdrumsharmonicsflute Guitar Pro
chords

Chocolate (acoustic)

  		

 
. All notes relative to the capo 


Verse 

e|--------------------------------------------------------------------------------------------------| 
B|--------3-----------------------3------------------------3--------------------------3-------------| 
G|----2------2-2-------------2-------2-2-------------2--------2-2---------------2---------2-2-------| 
D|----0-------0--------------0--------0--------------0---------0----------------0----------0--------| 
A|-------------------------0---0-------------------2---2--------------------------------------------| 
E|--3---3---------------------------------------------------------------------2---2-----------------| 

Pre Chorus 

e|------------------------------------------| 
B|------------------------------------------| 
G|-----2--------2----------2----------2-----| 
D|----0-0------0-0--------0-0--------0-0----| 
A|-----------0----------2-------------------| 
E|--3------------------------------2--------| 

Chorus 

e|--------------------------------------------------------------------------------------------------| 
B|--------3--3--------------------3--3--------------------3--3------------------------3--3----------| 
G|----2-------2--------------2--------2--------------2--------2-----------------2---------2---------| 
D|----0--------0-------------0---------0-------------0---------0----------------0----------0--------| 
A|-------------------------0---0-------------------2---2--------------------------------------------| 
E|--3---3---------------------------------------------------------------------2---2-----------------| 
	  

Search Paypal
auto scroll beats size up size down change color hide chords drawings
tab show chords e-chords YouTube Clip e-chords hide all tabs e-chords go to top tab