Tex Perkins

Cold Feet

Tex Perkins

tabs

save to print version add songbook text version e-mail correct tuner
chordsukulelecavacokeyboardtabbassdrumsharmonicaflute Guitar Pro
close

there isn't a video lesson for this song

chords

Cold Feet

	  		Notes: This is in no way, shape or form a complete tab 
for this song - I find it a little tricky to hear the 
notes being picked & I'm not a great finger picking guitarist. 
But the below should get you playing along to the song.  
Feel free to improve on this effort!  
 
 
INTRO / VERSE: 
    Dm      Cadd9       Dm          Cadd9    Dm      Cadd9       Dm       Dsus4 
E-|-----1---3---------|-----1--3-----------|-----1---3---------|-1--------0-|- 
B-|-------3-----------|-----3--3-----------|-------3-----------|-3--------3-|- 
G-|----------------0--|------------------0-|----------------0--|---2------2-|- 
D-|-0------------0----|-0--------------0---|-0------------0----|------0---0-|- 
A-|-----------3-------|-------------3------|-----------3-------|------------|- 
E-|-------------------|--------------------|-------------------|------------|- 
 
CHORUS CHORDS: 
    A#/D   Dm    A#/D    G 
E-|-0------1-----0-------3---|- 
B-|-3------3-----3-------3---|- 
G-|-2------2-----2-------0---|- 
D-|-0------0-----0-------0---|- 
A-|-1------------1-------x---|- 
E-|----------------------3---|- 
 
 

		  

Full key step upFull key step up
Half key step upHalf key step up
Half key step downHalf key step down
Full key step downFull key step down
hide glossary

See also:

tabs John Butler Trio - Attitude tabs The Dissociatives - Horror With Eyeballs tabs Wolfmother - Woman tabs Pete Murray - Tonic tabs Virgin Black - Our Wings Are Burning tabs Russell Morris - On The Wings Of An Eagle
e-chords

Other versions:

tabs Tex Perkins - Cold Feet
auto scroll beats size up size down change color hide chords drawings
tab show chords e-chords YouTube Clip e-chords hide all tabs e-chords go to top tab

share