Tété

Les Rallyes

Tété

tabs nolevel nolevel

by  BRUNBLAZKOWSKI

save to print version add songbook text version e-mail correct tuner
chordsukulelecavacokeyboardtabbassdrumsharmonicaflute Guitar Pro
close

there isn't a video lesson for this song

chords

Les Rallyes

	  		La Rallyes - CD Préambule 


Couplet : 

Mon ami 
Sais- tu ce que c'est qu'un rallye? 
Non? Et bien je vais te L'expli 
quer en deux secondes. Ne    	                          	        	 
|-----------------------------------------------------------------| 
|-----------------------------------------------------------------| 
|-----------------------------------------------------------------| 
|-----------------------------------------------------4-----------| 
|----2---2-----2-----------4----4----4--4--3--3--32--2------------| 
|-0-------0-------0----2---------2-----------------------x--0-----| 

bou ge pas 
Am Abm Gbm 


Refrain : 

|-----------------------------------------------------------------------------------| 
|-------------------------------------------------------------------0---0---0-------| 
|-----------------------------------------------------------------------------------| 
|--------------2------2-----2-------------------------------------2---3---4---6-7-9-| 
|--2--4--2--4------2-----2----2------4-----4--4--2-----4--4--2----------------------| 
|---------------------------------2-----2-----------2-------------------------------| 



Manque le solo guitare que je laisse à  ceux qui ont du courage! 



PAROLES 

Mon ami 
Sais- tu ce que c'est qu'un rallye? 
Non? Et bien je vais te L'expli 
quer en deux secondes. Ne  
bouge pas 

Ce sont des  
sortes De fétes où se pressent Les  
élégantes et les gens chics, 
Où se presse le tout Paris 

On y croise 
Des nantis, des princes, des bandits, 
Des vedettes, des égéries 

Que fait-on  
Dans ce genre de réunion? 
Ho! L'aMi laisse moi te l'expli 
quer, Ce ne sera pas long. 

C'est très ennnuyeux 
On y joue pas de  
Guitare ou alors très peu 

On y joue 
Plutôt de 
		  

Full key step upFull key step up
Half key step upHalf key step up
Half key step downHalf key step down
Full key step downFull key step down
hide glossary

See also:

tabs Tété - Le Meilleur Des Mondes tabs Tété - La Relance tabs Tété - Le Sacre Des Lemmings (interlude) tabs Soko - Sweet Sound Of Ignorance tabs Lara Fabian - Love By Grace tabs Tété - Le Magicien
e-chords

Other versions:

tabs Tété - Les Rallyes
auto scroll beats size up size down change color hide chords drawings
tab show chords e-chords YouTube Clip e-chords hide all tabs e-chords go to top tab

share with facebook