Tété

Le Sacre Des Lemmings (interlude)

Tété

tabs nolevel nolevel

by  BRUNBLAZKOWSKI

save to print version add songbook text version e-mail correct tuner
chordsukulelecavacokeyboardtabbassdrumsharmonicaflute Guitar Pro
close

there isn't a video lesson for this song

chords

Le Sacre Des Lemmings (interlude)

	  		Par -dav- 

  
  
----------------------------------------------------------------------------------- 
-----------------3--5-------------------------------------------------------------- 
-----------------2---->4--5--4--2-----------------------2--0--4-------------------- 
-----2--4->5--2--2--------------------2--2--1--2->4--5-----2--4-------------------- 
-----2-----------0--------------------2--2--2--2-----------2--2-------------------- 
--0--0-----------------------------0--0--0----------------------------------------- 


----------------------------------------------------------------------------------- 
--------------0-------------------------------------------------------------------- 
--X-(2)>4--0-(2)>4--------------2-------5--4->3--4---------------------2--0--4----- 
--X-----------------2--4--5--2--3----3---------------2--2--1--2--4->5-----2--4--2-- 
--X-----------------2-----------3--3-----------------2--2--2--2-----------2--2----- 
--X-----------------0-----------1--------------------0--0-----------------------0-- 


A vous d'y apporter le feeling essentiel, notamment par la cadence. 


Commentaire: gruadavid-at-hotmail.com 
		  

See also:

tabs Tété - Le Meilleur Des Mondes tabs Tété - La Relance tabs Tété - Le Sacre Des Lemmings (interlude) tabs Soko - Sweet Sound Of Ignorance tabs Lara Fabian - Love By Grace tabs Tété - Le Magicien
e-chords

Other versions:

tabs Tété - Le Sacre Des Lemmings (interlude)
auto scroll beats size up size down change color hide chords drawings
tab show chords e-chords YouTube Clip e-chords hide all tabs e-chords go to top tab

share with facebook