Tété

Je L'appelle De Mes Voeux

Tété

tabs Expert expert

by  BRUNBLAZKOWSKI

save to print version add songbook text version e-mail correct tuner
chordsukulelecavacokeyboardtabbassdrumsharmonicaflute Guitar Pro
close

there isn't a video lesson for this song

chords

Je L'appelle De Mes Voeux

	  		

                                          |   INTRO   |     


---------------------------------------------------------------------- 
--------------------------------------------------------------------3- 
--------------------------------0-----------------------------------0- 
--------------------------4/5-4---0---------------------------4/5-4-4- 
---0-2-2--5-3-3--5/7-5-5------------2----0-2-2--3/7-5-3-2-0-5--------- 
-3-------------------------------------3------------------------------ 

-------------------------------------------------------------------- 
------------------------------------------------------------------3- 
------------------------------0-------------------------------0---0- 
------------------------4/5-4---0-----------------0-0-0----0--4---4- 
---0-2-2--5-3-3--7-5-5------------2----0-2-2--3/7-5-3-2-0--5------5- 
-3-----------------------------------3------------------------------ 



Je travaille actuellement sur le reste de la chanson. 
Un peu de patience et ?a viendra :) 

Bonne gratte. 
		  

See also:

tabs Tété - Le Meilleur Des Mondes tabs Tété - La Relance tabs Tété - Le Sacre Des Lemmings (interlude) tabs Soko - Sweet Sound Of Ignorance tabs Lara Fabian - Love By Grace tabs Tété - Le Magicien
e-chords

Other versions:

tabs Tété - Je L'appelle De Mes Voeux
auto scroll beats size up size down change color hide chords drawings
tab show chords e-chords YouTube Clip e-chords hide all tabs e-chords go to top tab

share with facebook