Tété

Aisé

Tété

tabs nolevel nolevel

by  BRUNBLAZKOWSKI

save to print version add songbook text version e-mail correct tuner
chordsukulelecavacokeyboardtabbassdrumsharmonicaflute Guitar Pro
close

there isn't a video lesson for this song

chords

Aisé

Key:  Am More
Aisé Key EmEm
Aisé Key FmFm
Aisé Key F#mF#m
Aisé Key GmGm(one step down)
Aisé Key G#mG#m(half step down)
Aisé Key AmAm(original key)
Aisé Key A#mA#m(half step up)
Aisé Key BmBm(one step up)
Aisé Key CmCm
Aisé Key C#mC#m
Aisé Key DmDm
Aisé Key D#mD#m
	  		[email protected] 

titre: Tété - Aisé 

Transcription : Coolseb 

Tab: tété - aisé 

(se désaccorder d'un demi-ton) 

Intro:  Am
:----------------------------------------------------------------------------------------------: 
:----------------------------------------------------------------------------------------------: 
:--x--------2------------------------------------2--------------------------2------------------: 
:--x----2---2x-----2--2x2x---x-x--2----2x----2--------------2---2x------2------------x-x--2----: 
:--x----0--------3---------3------0--------3----------3-----0--------3-----------3--------0----: 
:----------------------------------------------------------------------------------------------: 



:----------------------------------------------------------------------------------------------: 
:----------------------------------------------------------------------------------------------: 
:-----------------------------2----------2-----------------------------------------------------: 
:--2x----2--2x2x---x-x----2---2x----2-----------x-x--2---2x-----2--2x2x----x-x---2---2x---2-2x-: 
:------3---------3--------0-------3----------3-------0--------3----------3-------0------3------: 
:---------------------3~-----------------------------------------------------------------------: 



Des fois je ne sais que faire de moi de mon putain 
		  

Full key step upFull key step up
Half key step upHalf key step up
Half key step downHalf key step down
Full key step downFull key step down
hide glossary

See also:

tabs Tété - Le Meilleur Des Mondes tabs Tété - La Relance tabs Tété - Le Sacre Des Lemmings (interlude) tabs Soko - Sweet Sound Of Ignorance tabs Lara Fabian - Love By Grace tabs Tété - Le Magicien
e-chords

Other versions:

tabs Tété - Aisé
auto scroll beats size up size down change color hide chords drawings
tab show chords e-chords YouTube Clip e-chords hide all tabs e-chords go to top tab

share with facebook