Tercer Cielo

No Tengas Miedo

Tercer Cielo

tabs Expert expert

by  ENAMORDO3110

save to print version add songbook text version e-mail correct tuner
chordsukulelecavacokeyboardtabbassdrumsharmonicaflute Guitar Pro
close

there isn't a video lesson for this song

chords

No Tengas Miedo

	  		  E          B              C#m 
e-2/4--4-2-0-2-4-7---2/4-2-0-2- 
B------------------------------ 
G------------------------------ 
D------------------------------ 
A------------------------------ 
E------------------------------ 
          B  A 
e-2/4-2-0-2-4-- 
B------------2- 
G-------------- 
D-------------- 
A-------------- 
E-------------- 
    E                              B 
La distancia es tan grande entre tú y yo 
   C#m                             A 
a pesar que te miro a diario y escucho tu voz 
        E         B        C#m      B 
te veo compartiendo, entre tus amigos 
        A                        B     A-B 
desde lejos miro, no me atrevo a ir 
        E        B        C#m    B 
cruzas por mi lado y no vuelvo nada, 
        A                   B 
solo imagino que pudiera ser 


Coro: 
                            E                          B 
Si a lo mejor sientes lo mismo y por miedo no dices nada 
                      F#m                               A        B 
porque alguien te rompió el corazón y piensas que lo mismo haré yo 
        E                   A                   F#m 
no es así, todavía queda gente dispuesta a entregarse en el amor 
                A            B        A 
y quiero demostrar que puedo yo ser así 
                G#m                F#m                       B 
si me dices que si verás que cuidaré como un tesoro lo nuestro 
                      E 
así que no tengas miedo 
  E          B              C#m 
e-2/4--4-2-0-2-4-7---2/4-2-0-2- 
B------------------------------ 
G------------------------------ 
D------------------------------ 
A------------------------------ 
E------------------------------ 
          B  A 
e-7-7-7--9-7--- 
B-9-9-9-10-9-2- 
G-------------- 
D-------------- 
A-------------- 
E-------------- 
       E                   B 
En el día de ayer te vi pasar 
      C#m                               A 
y no supe como introducirme, poderte ganar 
e-------------------- 
B-----12-10-9-------- 
G-9-11-------11-9-11- 
D-------------------- 
A-------------------- 
E-------------------- 
          E      B        C#m    B 
hasta e practicado lo que te diría 
         A                        B   A-B 
y no encuentro forma de llegar a ti 
          E      B          C#m      B 
te haces imposible mientras yo me muero, 
         A                 B 
solo imagino que pudiera ser 

//Coro// 


Final: 
                      A  G#m  F#m  B 
así que no tengas miedo ohoh ohoh 
                         E 
así que no tengas miedo 

e-4-5-4-2-0-2- 
B------------- 
G------------- 
D------------- 
A------------- 
E------------- 
		  

Full key step upFull key step up
Half key step upHalf key step up
Half key step downHalf key step down
Full key step downFull key step down
auto scroll beats size up size down change color hide chords drawings
tab show chords e-chords YouTube Clip e-chords hide all tabs e-chords go to top tab

share