Tenhi

Etaisyyksien Taa

Tenhi

tabs

by  ANDRSOUZA

save to print version add songbook text version e-mail correct tuner
chordsukulelecavacokeyboardtabbassdrumsharmonicaflute Guitar Pro
close

there isn't a video lesson for this song

chords

Etaisyyksien Taa

	  		

Part I: 
0:00 - 0:40 

   1   2   3     1   2   3     1   2   3     1   2   3   4 
e|-------------|-------------|-------------|-----------------| 
B|-0-1---1-0---|-------0-----|-------------|-----------------| 
G|-2---2-----0-|-----0---0---|-----6---6---|-----0---0-------| 
D|-2-----------|-2-4-------4-|-0-4---4---4-|---1-1-2-2-------| 
A|-0-----------|-------------|-------------|-2---------------| 
E|-------------|-------------|-------------|-----------------| 


Part II: 
1:00 - 1:48 

   1   2   3   4 
e|-----------------| 
B|---------0-----1-| 
G|-----2-----2-----| 
D|---2---2-----2---| 
A|-0---------------| 
E|-----------------| 


Part III: 
1:48 - 2:30 

   1   2   3     1   2   3     1   2     1   2   3     1   2   3     1   2 
e|-----0-------|-------------|---------|-------1-----|-------1-----|---------| 
B|---1-------1-|-----0-------|---------|-----3---3---|-----3---3---|-----3---| 
G|-2-------2---|---0-------0-|-----0---|---2-------2-|---2-------2-|---2---2-| 
D|-------3-----|-2-------2---|---0---0-|-0-----------|-0-----------|-0-------| 
A|-------------|-------3-----|-2-------|-------------|-------------|---------| 
E|-------------|-------------|---------|-------------|-------------|---------| 


2:30 - 3:10 Part I 
3:30 - 4:20 Part II 
4:20 - 5:25 Part III 
5:25 - 5:52 Part I 






Lead guitar: 
------------- 


Part I: 
0:00 - 0:40 

   1   2   3     1   2   3     1   2   3     1   2   3   4 
e|-------------|-------------|-------------|-----------------| 
B|-0-1---1-0---|-------0-----|-------------|-----------------| 
G|-2---2-----0-|-----0---0---|-----6---6---|-----0---0-------| 
D|-2-----------|-2-4-------4-|-0-4---4---4-|---1-1-2-2-------| 
A|-0-----------|-------------|-------------|-2---------------| 
E|-------------|-------------|-------------|-----------------| 


Part II: 
0:40 - 1:48 

   1   2   3   4   1   2   3   4   1   2   3   4   1   2   3   4   1   2   3   4           
e|---------------------------------------------------------------------------------| 
B|---------------------------------------------------------------------------------| 
G|-----------------------------------4-5-4-----------------------------------------| 
D|-2-------------2/7-------------2/7-------6-----6h7-------------2-/7--------------| 
A|-------------------------------------------------------------------8-7-----------| 
E|-------------------------------------------------------------------------------7-| 

   1   2   3   4   1   2   3   4   1   2   3   4 
e|-------------------------------------------------| 
B|-------------------------------------------------| 
G|-------------------------------------------------| 
D|-------------------------------------------------| 
A|-----------------5-----------3-2-0---------------| 
E|-------------7-8---------------------------------| 


Part III: 
1:48 - 2:30 

   1   2     3   1   2   3   1   2   1   2   3   1   2   3   1   2 
e|----------------------------------------------------------------| 
B|-----5h6p5------------------------------------------------------| 
G|-------------7-5-4-5-4-------4-5-7---5-4-5-4--------------------| 
D|-----------------------7---------------------7------------------| 
A|-----------------------------------------------------7-8-5-7----| 
E|----------------------------------------------------------------| 

   1   2     3   1   2   3   1     2     1   2   3    1   2   3   1   2 
e|-----------------------------------------------/8-7-5-7-5---------------| 
B|-----5h6p5-----------------------5-6-5-6------------------8-6-5-6-5-----| 
G|-------------7-5-4-5-4-----4-5-7------------------------------------7---| 
D|-----------------------7------------------------------------------------| 
A|------------------------------------------------------------------------| 
E|------------------------------------------------------------------------| 

   1   2     3   1   2   3   1   2   1   2   3   1   2   3   1   2 
e|----------------------------------------------------------------| 
B|-----5h6p5------------------------------------------------------| 
G|-------------7-5-4-5-4-------4-5-7---5-4-5-4--------------------| 
D|-----------------------7---------------------7------------------| 
A|-----------------------------------------------------7-8-5-7----| 
E|----------------------------------------------------------------| 

   1   2     3   1   2   3   1     2     1   2   3    1   2   3   1   2 
e|-----------------------------------------------/8-7-5-7-5---------------| 
B|-----5h6p5-----------------------5-6-5-6------------------8-6-5-6-------| 
G|-------------7-5-4-5-4-----4-5-7----------------------------------------| 
D|-----------------------7------------------------------------------------| 
A|------------------------------------------------------------------------| 
E|------------------------------------------------------------------------| 


2:30 - 3:10 Part I 
3:10 - 4:20 Part II 


Part III+: 
4:20 - 5:25 

   1   2     3   1   2   3   1   2   1   2   3   1   2   3   1   2 
e|----------------------------------------------------------------| 
B|-----5h6p5------------------------------------------------------| 
G|-------------7-5-4-5-4-------4-5-7---5-4-5-4--------------------| 
D|-----------------------7---------------------7------------------| 
A|-----------------------------------------------------7-8-5-7----| 
E|----------------------------------------------------------------| 

   1   2     3   1   2   3   1     2     1   2   3    1   2   3   1   2 
e|-----------------------------------------------/8-7-5-7-5---------------| 
B|-----5h6p5-----------------------5-6-5-6------------------8-6-5-6-5-----| 
G|-------------7-5-4-5-4-----4-5-7------------------------------------7---| 
D|-----------------------7------------------------------------------------| 
A|------------------------------------------------------------------------| 
E|------------------------------------------------------------------------| 

   1   2     3   1   2   3   1   2   1   2   3   1   2   3   1   2 
e|----------------------------------------------------------------| 
B|-----5h6p5------------------------------------------------------| 
G|-------------7-5-4-5-4-------4-5-7---5-4-5-4--------------------| 
D|-----------------------7---------------------7------------------| 
A|-----------------------------------------------------7-8-5-7----| 
E|----------------------------------------------------------------| 

   1   2     3   1   2   3   1     2     1   2   3    1   2   3   1   2 
e|-----------------------------------------------/8-7-5-7-5---------------| 
B|-----5h6p5-----------------------5-6-5-6------------------8-6-5-6-5-----| 
G|-------------7-5-4-5-4-----4-5-7------------------------------------7---| 
D|-----------------------7------------------------------------------------| 
A|------------------------------------------------------------------------| 
E|------------------------------------------------------------------------| 

   1   2     3     1    2     3     1   2   1   2   3   1   2   3   1   2  
e|---------------------------------------------------------------------------| 
B|-5---6-5-------------------------------------------------------------------| 
G|---------7---5-7-5----4-5-4---4-5-7-5-4-5----------------------------------| 
D|------------------------------------------7-----------7-5-----3-2-----3-2--| 
A|---------------------------------------------------------------------------| 
E|---------------------------------------------------------------------------| 

   1   2   3   1   2   3   1   2   1   2   3   1   2   3   1   2  
e|-----------------------------------------------------------------| 
B|-----------------------------------------------------------------| 
G|-----------------------------------------------------------------| 
D|-------------------2-----0---3-2-0-------------------------------| 
A|-0-----3-----2---------------------------------------------------| 
E|-----------------------------------------------------------------| 

5:25 - 5:52 Part I 

************************************ 

| /   slide up 
| \   slide down 
| h   hammer-on 
| p   pull-off 
| ~   vibrato 
| +   harmonic 
| x   Mute note 
| b   Bend 
| pb  Pre-bend 
| br  Bend release 
| pbr Pre-bend release 
| brb Bend release bend 

************************************ 
		  

See also:

tabs Deep Purple - Strange kind of woman tabs Deep Purple - Smoke On The Water tabs Deep Purple - Time To Kill tabs Albert Hammond Jr - Gfc tabs Deep Purple - Soldier Of Fortune tabs Ira! - Nucleo De Base
e-chords

Other versions:

tabs Tenhi - Etaisyyksien Taa
auto scroll beats size up size down change color hide chords drawings
tab show chords e-chords YouTube Clip e-chords hide all tabs e-chords go to top tab

share