Tenacious D

Rize Of The Fenix

Tenacious D

tabs Expert expert

by  LUCASHOLMES

save to print version add songbook text version e-mail correct tuner
chordsukulelecavacokeyboardtabbassdrumsharmonicaflute Guitar Pro
close

there isn't a video lesson for this song

chords

Rize Of The Fenix

	  		


|-------------------------------------------------------------|x9 
|-----------------------------0-------------------------------| 
|-----------------------------0-------------------------------| 
|--2------2------2-----2--------------------------------------| 
|--2------2------2-----2--------------------------------------| 
|--0-x-x--0-x-x--0-x-x-0--------------------------------------| 


|-------------------------------------------------------------| 
|-------------------------------------------------------------| 
|--------------------2-2-2-2-2-2-2-2-2-2-2-2----3---3---------| 
|--2-2-2-2-2-2-2-2---2-2-2-2-2-2-2-2-2-2-2-2----3---3---------| 
|--2-2-2-2-2-2-2-2---0-0-0-0-0-0-0-0-0-0-0-0----1-x-1-x-------| 
|--0-0-0-0-0-0-0-0--------------------------------------------| 


|-------------------------------------------------------------|x8 
|-----------------------------0-------------------------------| 
|-----------------------------0-------------------------------| 
|--2------2-------2------2------------------------------------| 
|--2------2-------2------2------------------------------------| 
|--0-x-x--0--x-x--0--x-x-0------------------------------------| 


|-------------------------------------------------------------| 
|-------------------------------------------------------------| 
|-------------------------------------------------------------| 
|---5---4---3---2---------------------------------------------| 
|---5---4---3---2---------------------------------------------| 
|---3---2---1---0---------------------------------------------| 

|-------------------------------------------------------------|x2 
|-------------------------------------------------------------| 
|22222222222-33333333333-55555555555-77777777777--------------| 
|22222222222-33333333333-55555555555-77777777777--------------| 
|00000000000-11111111111-33333333333-55555555555--------------| 
|-------------------------------------------------------------| 
Sounds shutting and it's hell of a day... 

chorus: 
|-2-2---2-2----0---0-0----0---0-0-----------------------------|x3 
|-2-2---3-3----2---2-2----2---2-2-----------------------------| 
|-0-0---2-2----2---2-2----2---2-2-----------------------------| 
|-0-0---0-0----2---2-2----2---2-2-----------------------------| 
|-2-2----------0---0-0----0---0-0-----------------------------| 
|-3-3---------------------------------------------------------| 
It's the life of the Fenix... 

|--2-2---2-2---1-1--1-1----0----------------------------------| 
|--2-2---3-3---1-1--1-1----1----------------------------------| 
|--0-0---2-2---3-3--2-2----0----------------------------------| 
|--0-0---0-0---3-3--3-3----2----------------------------------| 
|--2-2---------3-3--3-3----3----------------------------------| 
|--3-3---------1-1--1-1---------------------------------------| 

|-------------------------------------------------------------|x2 
|-------------------------------------------------------------| 
|22222222222-33333333333-55555555555-77777777777--------------| 
|22222222222-33333333333-55555555555-77777777777--------------| 
|00000000000-11111111111-33333333333-55555555555--------------| 
|-------------------------------------------------------------| 

|-2-2---2-2----0---0-0----0---0-0-----------------------------|x3 
|-2-2---3-3----2---2-2----2---2-2-----------------------------| 
|-0-0---2-2----2---2-2----2---2-2-----------------------------| 
|-0-0---0-0----2---2-2----2---2-2-----------------------------| 
|-2-2----------0---0-0----0---0-0-----------------------------| 
|-3-3---------------------------------------------------------| 
It's the life of the Fenix... 

|--2-2---2-2---1-1--1-1----0----------------------------------| 
|--2-2---3-3---1-1--1-1----1----------------------------------| 
|--0-0---2-2---3-3--2-2----0----------------------------------| 
|--0-0---0-0---3-3--3-3----2----------------------------------| 
|--2-2---------3-3--3-3----3----------------------------------| 
|--3-3---------1-1--1-1---------------------------------------| 

|--0---0---0-0---0--0----0---0---0-0----0-0-------------------| 
|--0---0---2-2---2--2----0---0---0-0----0-0-------------------| 
|--2---2---2-2---2--2----2---2---2-2----0-0-------------------| 
|--2---2---2-2---2--2----2---2---2-2----2-2-------------------| 
|--0---0---0-0---0--0----0---0---0-0----2-2-------------------| 
|---------------------------------------0-0-------------------| 
But what if it's true... 

|---2--------------------------0--0--0--0--0--0---------------| 
|---2--------------------------0--2--0--2--0--2---------------| 
|---0--------------------------2--2--2--2--2--2---------------| 
|---0--------------------------2--2--2--2--2--2---------------| 
|---2--------------------------0--0--0--0--0--0---------------| 
|---3---------------------------------------------------------|  
If Tenacious D has died what well we do? 
(Toque junto com a musica para pegar o ritimo) 

|--------0-0---0--0----0---0---0-0----0-0---------------------| 
|--------2-2---2--2----0---0---0-0----0-0---------------------| 
|--------2-2---2--2----2---2---2-2----0-0---------------------| 
|--------2-2---2--2----2---2---2-2----2-2---------------------| 
|--------0-0---0--0----0---0---0-0----2-2---------------------| 
|-------------------------------------0-0---------------------| 

|---2--------------------------0-0--------0--0--0-------------| 
|---2--------------------------0---0------2--0--2-------------| 
|---0--------------------------2-----2----2--2--2-------------| 
|---0--------------------------2----------2--2--2-------------| 
|---2--------------------------0----------0--0--0-------------| 
|---3---------------------------------------------------------|  
About all the fans who have the D tattoo... 

|--------0-0---0--0----0---0---0-0----0-0---------------------| 
|--------2-2---2--2----0---0---0-0----0-0---------------------| 
|--------2-2---2--2----2---2---2-2----0-0---------------------| 
|--------2-2---2--2----2---2---2-2----2-2---------------------| 
|--------0-0---0--0----0---0---0-0----2-2---------------------| 
|-------------------------------------0-0---------------------| 

|---2--------------------------0----------0--0----------------| 
|---2--------------------------0----------2--0----------------| 
|---0--------------------------2----------2--2----------------| 
|---0--------------------------2----------2--2----------------| 
|---2--------------------------0----------0--0----------------| 
|---3---------------------------------------------------------|  
They'll have to laser off the D tattoos... 
() 

|--0----0------0----------------------------------------------| 
|--2----0------0----------------------------------------------| 
|--2----2------0----------------------------------------------| 
|--2----2------2----------------------------------------------| 
|--0----0------2----------------------------------------------| 
|--------------0----------------------------------------------| 
Tattoo...  

|---2--------0------------------------------------------------| 
|---2--------0------------------------------------------------| 
|---0--------2------------------------------------------------| 
|---0--------2------------------------------------------------| 
|---2--------0------------------------------------------------| 
|---3---------------------------------------------------------| 
They'll have to laser off the D tattoo... 

|-------------------------------------------------------------|x3 
|-------------------------------------------------------------| 
|--2-2--2-2--2--2-2-----5-5--5-5--5--5-5----------------------| 
|--2-2--2-2--2--2-2-----5-5--5-5--5--5-5----------------------| 
|--0-0--0-0--0--0-0-----3-3--3-3--3--3-3----------------------| 
|-------------------------------------------------------------| 
Wait a minute Kage... What's that you say? (deixe os acordos abafados) 

|--0-------2-------2------------------------------------------|x4 
|--2-------2-------3------------------------------------------| 
|--2-(x8)--0-(x8)--2---(x8)-----------------------------------| 
|--2-------0-------0------------------------------------------| 
|--0-------2--------------------------------------------------| 
|----------3--------------------------------------------------| 
One Hit!,One Hit!,One Hit! 
Yeah, we're hoping this is it,One Hit! 
Drop the hit!Top for that hit!Top thousand hit! 
I don't care as long as we get there, 
We'll start out new,And you can get a new Tenacious D Tattoo... 

|--0--------2-------------------------------------------------| 
|--2--------2-------------------------------------------------| 
|--2--------0-------------------------------------------------| 
|--2--------0-------------------------------------------------| 
|--0--------2-------------------------------------------------| 
|-----------3-------------------------------------------------| 
(Figure out the comp) 

|--2-2-2-2-2-2-2-2--------------------------------------------| 
|--3-3-3-3-3-3-3-3--------------------------------------------| 
|--2-2-2-2-2-2-2-2--------------------------------------------| 
|--0-0-0-0-0-0-0-0--------------------------------------------| 
|-------------------------------------------------------------| 
|-------------------------------------------------------------| 
You can get a new Tenacious d tat-  

|----1--1--1-1---2--2---0-------------------------------------| 
|----1--1--1-1---2--2---2-------------------------------------| 
|----2--2--2-2---0--0---2---(deixe rolar)---------------------| 
|----3--3--3-3---0--0---2-------------------------------------| 
|----3--3--3-3---2--2---0-------------------------------------| 
|----1--1--1-1---3--3-----------------------------------------| 
     tooooooooooooooooooooooooooooooo! 
		  

Full key step upFull key step up
Half key step upHalf key step up
Half key step downHalf key step down
Full key step downFull key step down
hide glossary

See also:

tabs Avenged Sevenfold - Betrayed tabs John Williams - Star wars theme tabs Soundtracks - Jurassic Park - Theme tabs Avenged Sevenfold - I Wont See You Tonight Part 1 tabs Pavement - Grounded tabs Avenged Sevenfold - Walk
e-chords

Other versions:

tabs Tenacious D - Rize Of The Fenix
auto scroll beats size up size down change color hide chords drawings
tab show chords e-chords YouTube Clip e-chords hide all tabs e-chords go to top tab

share