Temas Variados

Seleção brasileira (TV globo) Tab

Temas Variados

Difficulty: ExpertExpert

by victor%2Eh

tuner correct add songbook print version text version save to e-mail
chordsukulelecavacokeyboardtabbassdrumsharmonicsflute Guitar Pro
close

there isn't a video lesson for this song

request
chords

Seleção brasileira (TV globo)

  		-12--9---12--9-------9------9----12--9---12--9-------9------10- 
----------------10-12--12-10--------------------10-12--12-10--- 
--------------------------------------------------------------- 
--------------------------------------------------------------- 
--------------------------------------------------------------- 
--------------------------------------------------------------- 
 
-14--10---14--10----------12-14-16-14----14----14-12--------12------ 
------------------12-14-15-------------x-14---------15-14-12----10-- 
-------------------------------------------------------------------- 
-------------------------------------------------------------------- 
-------------------------------------------------------------------- 
-------------------------------------------------------------------- 
 

	  

Search Paypal
auto scroll beats size up size down change color hide chords drawings
tab show chords e-chords YouTube Clip e-chords hide all tabs e-chords go to top tab

share with facebook