Temas Variados

18 Wos Haulin Theme Tab

Temas Variados

Difficulty: nolevelnolevel

by everton1987

tuner correct add songbook print version text version save to e-mail
chordsukulelecavacokeyboardtabbassdrumsharmonicsflute Guitar Pro
close

there isn't a video lesson for this song

request
chords

18 Wos Haulin Theme

(18 Wheels of Steel: Haulin')

  		Intro: Cm G#m D# A#  Cm G#m D# A# 

E-----------------------------------------------------------| 
B-----------------------------------------------------------| 
G-----------------------------------------------------------| 
D-----------------------------------------------------------| 
A-----------------------------------------------------------| 
E----3-----5--6---10--11--13--11--10--10--8--6--6/10--8--8--| 

E-----------------------------------------------------------| 
B-----------------------------------------------------------| 
G-----------------------------------------------------------| 
D-----------------------------------------------------------| 
A------------------------------------------------12--13-----| 
E----3-----5--6---10--11--10-11-11/13--13--13/15------------| 

E------------------------------------------------------------| 
B------------------------------------------------------------| 
G------------------------------------------------------------| 
D------------------------------------------------------------| 
A---15--13--12-----------------13---15b16r15p13--15b16r15p13-| 
E---------------13--13h15--15--------------------------------| 

E-----------------------------------------------------------| 
B-----------------------------------------------------------| 
G-----------------------------------------------------------| 
D-----------------------------------------------------------| 
A---15b16r15p13---12--13--15--15--17-17--18--18--17--15--17-| 
E-----------------------------------------------------------| 

E----------------------------------------------| 
B----------------------------------------------| 
G----------------------------------------------| 
D---------15-----------------------------------| 
A--15-15------17---15--13--12--13--------------| 
E-----------------------------------\3---------| 

Acordes apos parada: G#m A# D# Cm  G#m A# D# 

E------------------------| 
B------------------------| 
G------------------------| 
D------------------------| 
A----15--15h17p15h17-17--|b 
E------------------------| 

E---------------------------------------| 
B---------------------------------------| 
G---------------------------------------| 
D-----------17--15h17p15h17--17p15--/17-| 
A----17--15-----------------------------| 
E---------------------------------------| 

E-----------------------------------------------------------| 
B-----------------------------------------------------------| 
G-----------------------------------------------------------| 
D-----------------------------------------------------------| 
A-----------------------------------------------------------| 
E----3-----5--6---10--11--13--11--10--10--8--6--6/10--8--8--| 

E-----------------------------------------------------------| 
B-----------------------------------------------------------| 
G-----------------------------------------------------------| 
D-----------------------------------------------------------| 
A------------------------------------------------12--13-----| 
E----3-----5--6---10--11--10-11-11/13--13--13/15------------| 

E----------------------------------------------------------------| 
B----------------------------------------------------------------| 
G----------------------------------------------------------------| 
D------------------------------------17--15h17p15h17--17p15--/17-| 
A----15--15h17p15h17-17b--17--15---------------------------------| 
E----------------------------------------------------------------| 

E------------------------------------------------------------| 
B------------------------------------------------------------| 
G------------------------------------------------------------| 
D------------------------------------------------------------| 
A---15--13--12-----------------13---15b16r15p13--15b16r15p13-| 
E---------------13--13h15--15--------------------------------| 

E-----------------------------------------------------------| 
B-----------------------------------------------------------| 
G-----------------------------------------------------------| 
D-----------------------------------------------------------| 
A---15b16r15p13---12--13--15--15--17-17--18--18--17--15--17-| 
E-----------------------------------------------------------| 

E---------------------------------------------| 
B---------------------------------------------| 
G---------15----------------------------------| 
D--15-15------17---15--13--12--13---/17-------| 
A---------------------------------------------| 
E---------------------------------------------| 
	  

Full key step upFull key step up
Half key step upHalf key step up
Half key step downHalf key step down
Full key step downFull key step down
Search Paypal
auto scroll beats size up size down change color hide chords drawings
tab show chords e-chords YouTube Clip e-chords hide all tabs e-chords go to top tab

share with facebook