Temas de TV

home > Temas de TV

Thundercats (abertura Do Desenho) Tab

Temas de TV

Difficulty: nolevelnolevel

by gustsilva

tuner correct add songbook print version text version save to e-mail
chordsukulelecavacokeyboardtabbassdrumsharmonicsflute Guitar Pro
chords

Thundercats (abertura Do Desenho)

  		de Liam Burke 


 
E|-------------------|------------------ 
B|-------------------|------------------ 
G|-------------------|------------------ 
D|-7-7-5-7--9-9-7----|-11-11-9-9--7----- 
A|-5-5-3-5--7-7-5----|-8--8--7-7--5----- 
E|-------------------|------------------ 
 



  D 
Thundercats ... 
  C 
Thundercats ... 
  D 
Feel ... 
  C 
Thundercats ... 


Thunder Thunder Thunder Thundercats 
 
e|----------------------------------- 
B|----------------------------------- 
G|-4-4--6-6--7-7--9-9--11~~~~~~~~---- 
D|----------------------------------- 
A|----------------------------------- 
E|----------------------------------- 
 

Thunder Thunder Thunder Thundercats 
 
e|----------------------------- 
B|----------------------------- 
G|-7-7--9-9--11-11--12-12--14-- 
D|----------------------------- 
A|----------------------------- 
E|----------------------------- 
 

Thunder Thunder Thunder Thundercats 
 
e|------------------------------- 
B|------------------------------- 
G|-4-4--6-6--7-7--9-9--7h9-11h12- 
D|------------------------------- 
A|------------------------------- 
E|------------------------------- 
 


 
E|-------------------------- 
B|-------------------------- 
G|-14h16p14h16p14-12p11-9p7- 
D|-------------------------- 
A|-------------------------- 
E|-------------------------- 
 

Thunder Thunder Thunder Thundercats! 
 
e|-------------------------- 
B|-------------------------- 
G|-4-4--6-6--7-7--14-14-16-- 
D|-------------------------- 
A|-------------------------- 
E|-------------------------- 
 
__________________________________________________ 

No desenho, rolam umas pequenas variações do primeiro riff, algo como 
 
E|-----------------|------------------ 
B|-----------------|------------------ 
G|-----------------|------------------ 
D|-7-7-5-5-9-9-7---|-11-11-9-9--7----- 
A|-5-5-3-3-7-7-5---|-8--8--7-7--5----- 
E|-----------------|------------------ 
 

Quando rola a moral da história, tem um pianinho que fica assim 

 
e|-----------------------|------------------ 
B|-----------------------|------------------ 
G|-----------------------|------------------ 
D|-12--9-10--7-9--5--7-5-|-7-7-5-7--9-9-7--- 
A|-----------------------|------------------ 
E|-----------------------|------------------ 
 


 
e|------------------ 
B|------------------ 
G|------------------ 
D|-11-11-9-9--7----- 
A|------------------ 
E|------------------ 
 
__________________________________________________ 

Quando aparecem os mutantes, ou alguém do mal, 
ou algum perigo, enfim, rola uma melodiazinha assim... 

e|-------------------------- 
B|-------------------------- 
G|-------------------------- 
D|-7--9--7--11-7--9--7--11-- 
A|-5--7--5--8--5--7--5--8--- 
E|-------------------------- 
	  

Full key step upFull key step up
Half key step upHalf key step up
Half key step downHalf key step down
Full key step downFull key step down
Search Paypal
auto scroll beats size up size down change color hide chords drawings
tab show chords e-chords YouTube Clip e-chords hide all tabs e-chords go to top tab