Temas de TV

home > Temas de TV

The Exorcist - Tema De O Exorcista Tab

Temas de TV

Difficulty: nolevelnolevel

by gustsilva

tuner correct add songbook print version text version save to e-mail
chordsukulelecavacokeyboardtabbassdrumsharmonicsflute Guitar Pro
chords

The Exorcist - Tema De O Exorcista

  		 
E|-0-5-0-7-0-3-5-0-8-0-10-0-10-8-7--| 
B|----------------------------------| 
D|----------------------------------|   (2x) 
G|----------------------------------| 
A|----------------------------------| 
E|----------------------------------| 
 

 
E|-0-5-7-3-5-7-9-8-7----------------| 
B|----------------------------------| 
D|----------------------------------| 
G|----------------------------------| 
A|----------------------------------| 
E|----------------------------------| 
 

 
E|-0-5-0-7-0-3-5-0-8-0-10-0-10-8-7--| 
B|----------------------------------| 
D|----------------------------------|   (4x) 
G|----------------------------------| 
A|----------------------------------| 
E|----------------------------------| 
 

 
E|-0-5-7-3-5-7-9-8-7----------------| 
B|----------------------------------| 
D|----------------------------------| 
G|----------------------------------| 
A|----------------------------------| 
E|----------------------------------| 
 

E|-0-5-7-0-3-5-7/8-10-9-8-5h6p5h6p5-| 
B|----------------------------------| 
D|----------------------------------| 
G|----------------------------------| 
A|----------------------------------| 
E|----------------------------------| 
	  

Search Paypal
auto scroll beats size up size down change color hide chords drawings
tab show chords e-chords YouTube Clip e-chords hide all tabs e-chords go to top tab