Temas de TV

home > Temas de TV

Tema Da Sadia Tab

Temas de TV

Difficulty: nolevelnolevel

by gustsilva

tuner correct add songbook print version text version save to e-mail
chordsukulelecavacokeyboardtabbassdrumsharmonicsflute Guitar Pro
chords

Tema Da Sadia

  		 
E |-----------------------------------------| 
B |-----------------------------------------| 
G |-----------------------------------------| 
D |-------4--5--4---------------------------| 
A |----5----------5--------5--4-------------| 
E |-5----------------5--7--------5---0--2---| 
 

 
E |-----------------------------------------| 
B |-----------------------------------------| 
G |-----------------------------------------| 
D |-5--4------------------------------------| 
A |-------5---------------------------------| 
E |----------5--7--5--0--2------------------| 
 

 
E |-----------------------------------------| 
B |-----------------------------------------| 
G |-----------------------------------------| 
D |-------4--5--4---------------------------| 
A |----5----------5--------5--4-------------| 
E |-5----------------5--7--------5---0--2---| 
 

E |-----------------------------------------| 
B |-----------------------------------------| 
G |-----------------------------------------| 
D |-5--4------------------------------------| 
A |-------5--------5--4--5--7---------------| 
E |----------5--7---------------------------| 
	  

Search Paypal
auto scroll beats size up size down change color hide chords drawings
tab show chords e-chords YouTube Clip e-chords hide all tabs e-chords go to top tab