Temas de TV

home > Temas de TV

Tartarugas Ninjas Tab

Temas de TV

Difficulty: nolevelnolevel

by gustsilva

tuner correct add songbook print version text version save to e-mail
chordsukulelecavacokeyboardtabbassdrumsharmonicsflute Guitar Pro
chords

Tartarugas Ninjas

  		 
E|------------------------- 
B|------------------------- 
G|----------07-08-07----07- 
D|-07-07-10----------10---- 
A|------------------------- 
E|------------------------- 
 


 
E|------------------------- 
B|------------------------- 
G|----------07-08-07----07- 
D|-07-07-10----------10---- 
A|------------------------- 
E|------------------------- 
 

 
E|------------------------- 
B|------------------------- 
G|----------07-08-07----07- 
D|-07-07-10----------10---- 
A|------------------------- 
E|------------------------- 
 


 
E|------------------------- 
B|------------------------- 
G|----------07-08-07----07- 
D|-07-07-10----------10---- 
A|------------------------- 
E|------------------------- 
 

refrão: 

E|-5-5-5-5-5-5-5-- 
B|---------------- 
G|---------------- 
	  

Search Paypal
auto scroll beats size up size down change color hide chords drawings
tab show chords e-chords YouTube Clip e-chords hide all tabs e-chords go to top tab