Temas de TV

home > Temas de TV

Smurfs Tab

Temas de TV

Difficulty: nolevelnolevel

by gustsilva

tuner correct add songbook print version text version save to e-mail
chordsukulelecavacokeyboardtabbassdrumsharmonicsflute Guitar Pro
chords

Smurfs

  		 
E|------8-------------------------------------------------------------------------------------| 
B|----8------8--10----------------------------------------------------------------------------| 
G|-------------------10---------12------------9-----------------------------------------------| 
D|------------------------12----------10-10------12~~-----------------------------------------| 
A|--------------------------------------------------------------------------------------------| 
E|--------------------------------------------------------------------------------------------| 
 

E|------8-------------------------------------------------------------------------------------| 
B|----8------8-10-----------------------------------------------------------------------------| 
G|-------------------10---------12----9-10----------------------------------------------------| 
D|-----------------------12-------------------12--10~~----------------------------------------| 
A|--------------------------------------------------------------------------------------------| 
E|--------------------------------------------------------------------------------------------| 
	  

Search Paypal
auto scroll beats size up size down change color hide chords drawings
tab show chords e-chords YouTube Clip e-chords hide all tabs e-chords go to top tab