Temas de TV

home > Temas de TV

Ratinho Livre Tab

Temas de TV

Difficulty: nolevelnolevel

by gustsilva

tuner correct add songbook print version text version save to e-mail
chordsukulelecavacokeyboardtabbassdrumsharmonicsflute Guitar Pro
chords

Ratinho Livre

  		Data: 4 de Janeiro 2000 

 
E|------------------------------------------------| 
B|-----------9--10-10-10-10--10--9--10--12-12-12--| 
G|---9--11----------------------------------------| 
D|------------------------------------------------| 
A|------------------------------------------------| 
E|------------------------------------------------| 
 

 
e|----------------------------------9--9--9--9-9----------------------9--12--10--| 
B|-9-9--10--12-12-12-12-12--10--12----------------12-11--11-11-11-12-------------| 
G|-------------------------------------------------------------------------------| 
D|-------------------------------------------------------------------------------| 
A|-------------------------------------------------------------------------------| 
E|-------------------------------------------------------------------------------| 
 

e|--9-9--10--12--10--9-------------------------|---------------------| 
B|---------------------12--10--9--10-10-10-10--|---------9--10-------| 
G|---------------------------------------------|--9--11--------------| 
D|---------------------------------------------|---------------------| 
A|---------------------------------------------|---------------------| 
E|---------------------------------------------|---------------------| 
	  

Search Paypal
auto scroll beats size up size down change color hide chords drawings
tab show chords e-chords YouTube Clip e-chords hide all tabs e-chords go to top tab