Temas de TV

home > Temas de TV

Programa Videos Incríveis Tab

Temas de TV

Difficulty: nolevelnolevel

by gustsilva

tuner correct add songbook print version text version save to e-mail
chordsukulelecavacokeyboardtabbassdrumsharmonicsflute Guitar Pro
chords

Programa Videos Incríveis

  		Esse solo é feito na  
abertura do programa 
por uma guitarra: 

 
E|-----------------------14--13--12-------------------- 
B|--14\12--------13-14--------------------13-14-13~---- 
G|---------12-14----------------------14--------------- 
D|----------------------------------------------------- 
A|----------------------------------------------------- 
E|----------------------------------------------------- 
 


 
E|--------------------14--13--14----------------------- 
B|--13\12-----13-14-------------------13-14-14/15------ 
G|---------14----------------------14------------------ 
D|----------------------------------------------------- 
A|----------------------------------------------------- 
E|----------------------------------------------------- 
 


 
E|-----------------------14--13--12-------------------- 
B|--14\12--------13-14--------------------13-14-13~---- 
G|---------12-14----------------------14--------------- 
D|----------------------------------------------------- 
A|----------------------------------------------------- 
E|----------------------------------------------------- 
 

B|-13/14-13--12-13--11-12/15~~~~\1--------------------- 
	  

Search Paypal
auto scroll beats size up size down change color hide chords drawings
tab show chords e-chords YouTube Clip e-chords hide all tabs e-chords go to top tab