Temas de TV

home > Temas de TV

Pernalonga E Cia Tab

Temas de TV

Difficulty: nolevelnolevel

by gustsilva

tuner correct add songbook print version text version save to e-mail
chordsukulelecavacokeyboardtabbassdrumsharmonicsflute Guitar Pro
chords

Pernalonga E Cia

  		Intro da Warner nos Desenhos do Pernalonga e Cia. 

Data: 20 de Julho 2000 

 
E||--12--10--8--10---12--11--12--------10--10--10--10--| 
B||------------------------------13--------------------| 
G||----------------------------------------------------| 
D||----------------------------------------------------| 
A||----------------------------------------------------| 
E||----------------------------------------------------| 
 

 
e|--10--8--7----8---10--9--10---7---8--8--8--8--| 
B|----------------------------------------------| 
G|----------------------------------------------| 
D|----------------------------------------------| 
A|----------------------------------------------| 
E|----------------------------------------------| 
 

 
e|--------------------------------| 
B|-----------------------3--3--3--| 
G|--0-1-2-1-0--1-2-1-0------------| 
D|--------------------------------| 
A|--------------------------------| 
E|--------------------------------| 
 

 
e|--------------------------------| 
B|-----------------------5--5--5--| 
G|--0-1-2-1-0--1-2-1-0------------| 
D|--------------------------------| 
A|--------------------------------| 
E|--------------------------------| 
 

 
e|--12--10--8--10--12--11--12--8---10--10--10--10--| 
B|-------------------------------------------------| 
G|-------------------------------------------------| 
D|-------------------------------------------------| 
A|-------------------------------------------------| 
E|-------------------------------------------------| 
 

e|--4--5--4--5---10--12--15|| 
B|-------------------------|| 
G|-------------------------|| 
D|-------------------------|| 
A|-------------------------|| 
E|-------------------------|| 
	  

Search Paypal
auto scroll beats size up size down change color hide chords drawings
tab show chords e-chords YouTube Clip e-chords hide all tabs e-chords go to top tab