Temas de TV

home > Temas de TV

Os Flintstones Tab

Temas de TV

Difficulty: nolevelnolevel

by gustsilva

tuner correct add songbook print version text version save to e-mail
chordsukulelecavacokeyboardtabbassdrumsharmonicsflute Guitar Pro
chords

Os Flintstones

  		 
-3------8-5-3-------3-1-0-0-1-3-----------3----8-5-3-----3-1-0-0-1-3---------- 
---1----------1-----------------1-3-5-------1-------------------------1-3-1--- 
------------------------------------------------------------------------------ 
------------------------------------------------------------------------------ 
------------------------------------------------------------------------------ 
------------------------------------------------------------------------------ 
 

(versão mais roqueira) 

 
E |--------15------19-17-15------15-13-12-12-13-15--------------- 
B |-----------13------------13---------------------13-15-17------ 
 

      cont. 
E |--------15------19-17-15------15-13-12-12-13-15--------------- 
B |-----------13------------13---------------------13-15-13------ 
	  

Search Paypal
auto scroll beats size up size down change color hide chords drawings
tab show chords e-chords YouTube Clip e-chords hide all tabs e-chords go to top tab