Temas de TV

home > Temas de TV

O Inspetor Bugiganga Tab

Temas de TV

Difficulty: nolevelnolevel

by gustsilva

tuner correct add songbook print version text version save to e-mail
chordsukulelecavacokeyboardtabbassdrumsharmonicsflute Guitar Pro
chords

O Inspetor Bugiganga

  		 
------------------------------------------------------------------------------ 
------------------------------------------------------------------------------ 
------------------------------------------------2--1---------------------------- 
----------0--2-----2---1-----1--0-----0----0--2----------------0--2-----1------- 
-0--2--3--------3---------2--------1------------------0--2--3--------3-----2---- 
------------------------------------------------------------------------------ 
 
                                                                               
 
------------------------------------------------------------------------------ 
----------------------------4--2--2--4--5--5--4--3--4--4--2--2--4--5--5--4---- 
----------------------------6--4--4--6--7--7--6--5--6--6--4--4--6--7--7--6---- 
-0-----2--1--0-----------2--6--4--4--6--7--7--6--5--6--6--4--4--6--7--7--6---- 
----1-----------3--2--1-----6--4--4--6--7--7--6--5--6--6--4--4--6--7--7--6---- 
------------------------------------------------------------------------------ 
 
                                                                               
 
------------------------------------------------------------------------------ 
-3--4------------------------------------------------------------------------- 
-5--6-----------------------------------------------2--1---------------------- 
-5--6-----------0--2-----1-----0--------------0--2-----------------0--2------- 
-5--6--0--2--3--------3-----2-----1--0--2--3--------------0--2--3--------3---- 
------------------------------------------------------------------------------ 
 
                                                                               
------------------------------------------------------------------------------ 
------------------------------------------------------------------------------ 
------------------------------------------------------------------------------ 
-1-----0-----2--1--0-----------2---------------------------------------------- 
----2-----1-----------3--2--1------------------------------------------------- 
------------------------------------------------------------------------------ 
	  

Search Paypal
auto scroll beats size up size down change color hide chords drawings
tab show chords e-chords YouTube Clip e-chords hide all tabs e-chords go to top tab