Temas de TV

home > Temas de TV

Novela Mulheres Apaixonadas (pela Luz Dos Olhos) Tab

Temas de TV

Difficulty: nolevelnolevel

by gustsilva

tuner correct add songbook print version text version save to e-mail
chordsukulelecavacokeyboardtabbassdrumsharmonicsflute Guitar Pro
chords

Novela Mulheres Apaixonadas (pela Luz Dos Olhos)

  		Versão 1 
-=======- 

Ouçam bem a musica para ter noção do tempo de música ok! Divirtam-se 

|-------------10--------------|\                    
|-12--10--12------12--10--12--| \                  
|-----------------------------|  \        
|-----------------------------|  /riff 1           
|-----------------------------| /                   
|-----------------------------|/          

 
|---------10--------------|\ 
|-10--12------12--10--12--| \ 
|-------------------------|  \ 
|-------------------------|  /riff 2 
|-------------------------| / 
|-------------------------|/ 
 

 
|---------14--------------|\ 
|-10--12------12--10--12--| \ 
|-------------------------|  \ 
|-------------------------|  /riff 3 
|-------------------------| / 
|-------------------------|/ 
 

|-12--10--12--15--12--10--12--|\          
|-----------------------------| \         
|-----------------------------|  \        
|-----------------------------|  /riff 4  
|-----------------------------| /         
|-----------------------------|/         

 
|-10--12--15--12--10--12--10--12--14--12--10--12--|\ 
|-------------------------------------------------| \ 
|-------------------------------------------------|  \ 
|-------------------------------------------------|  /riff 5 
|-------------------------------------------------| / 
|-------------------------------------------------|/ 
 

 
|-10--12--15--12--10--17~--|\ 
|--------------------------| \ 
|--------------------------|  \ 
|--------------------------|  /riff 6 
|--------------------------| / 
|--------------------------|/ 
 

Quando a luz dos olhos meus - riff 1       
E a luz dos olhos teus - riff 2     
Resolvem se encontrar - riff 3     

Aí, que bom que isso é meu Deus - riff 4      
Que frio que me dá o encontro desse olhar-rif 5       

Mas se a luz dos olhos teus - riff 1      
Resiste aos olhos meus - riff 2      
Só pra me provocar - riff 3 
       
Meu amor juro por Deus - riff 4       
Me sinto incendiar - riff 6        

Meu amor juro por Deus - riff 1       
Que a luz dos olhos meus - riff 2     
Já não pode esperar - riff 3     
Quero a luz dos olhos teus - riff 4      
Na luz dos olhos meus - riff 6      
Sem mais la ra la ia - riff 2 

Pela luz dos olhos teus - riff 4       
Eu acho meu amor que só pode achar - riff 5      
Que a luz dos olhos meus precisa se casar - riff 5 

+++++++++++++++++++++++++++++++++++++++++++++++++++++++++++++++++++ 
+ Cifrada por Eduardo Barbosa                                     + 

+ Qualquer dúvida mande um e-mail ok! Abraço pro povo do santaum  + 
+++++++++++++++++++++++++++++++++++++++++++++++++++++++++++++++++++ 
_______________________________________________________ 






Versão 2 
-======- 



 
e|-------1-------------3-----------5------- \\riff 1 
B|-3-1-3---3-1-3---1-3--3-1-3--1-3----3-1-3 // 
 


 
e|-------6-------------8-----------10------\\riff 2 
B|-8-6-8---8-6-8---6-8--8-6-8--6-8----8-6-8// 
 

###################################### 
#é só tocar com a música que fica bom# 
###################################### 
um abraço pro VL Izabel Curitiba-PR 
	  

Search Paypal
auto scroll beats size up size down change color hide chords drawings
tab show chords e-chords YouTube Clip e-chords hide all tabs e-chords go to top tab