Temas de TV

home > Temas de TV

Megas Xlr Abertura Tab

Temas de TV

Difficulty: nolevelnolevel

by gustsilva

tuner correct add songbook print version text version save to e-mail
chordsukulelecavacokeyboardtabbassdrumsharmonicsflute Guitar Pro
chords

Megas Xlr Abertura

  		 
E|---------------------------------------------------------------------------| 
B|---------------------------------------------------------------------------| 
G|---------------------------------------------------------------------------| 
D|22222222-55555555-77777777-8888-9------------(Drum Roll)-------------------| 
A|22222222-55555555-77777777-8888-9------------------------------------------| 
E|00000000-33333333-55555555-6666-7------------------------------------------| 
 

 
E|---------------------------------------------------------------------------| 
B|---------------------------------------------------------------------------| 
G|---------------------------------------------------------------------------| 
D|2222-5555-7777-9999--2222-5555-7777-9999-----------------------------------| 
A|2222-5555-7777-9999--2222-5555-7777-9999-----------------------------------| 
E|0000-3333-5555-7777--0000-3333-5555-7777-----------------------------------| 
 

 
E|---------------------------------------------------------------------------| 
B|---------------------------------------------------------------------------| 
G|---------------------------------------------------------------------------| 
D|22222222-55555555-99999999-99999999----------------------------------------| 
A|22222222-55555555-99999999-99999999----------------------------------------| 
E|00000000-33333333-77777777-77777777----------------------------------------| 
 

Morando aqui nesta cidade, enfrentamos muitos delinquentes 

 
E|---------------------------------------------------------------------------| 
B|---------------------------------------------------------------------------| 
G|---------------------------------------------------------------------------| 
D|22222222-55555555-77777777-99999999----------------------------------------| 
A|22222222-55555555-77777777-99999999----------------------------------------| 
E|00000000-33333333-55555555-77777777----------------------------------------| 
 

em alta velocidade no carro rob gigante! 

 
E|---------------------------------------------------------------------------| 
B|---------------------------------------------------------------------------| 
G|---------------------------------------------------------------------------| 
D|2222-5555-1010-77-9999-----------------------------------------------------| 
A|2222-5555-1010-77-9999-----------------------------------------------------| 
E|0000-3333--8-8-55-7777-----------------------------------------------------| 
 

  eu me amarro, robs gigantes, 

 
E|---------------------------------------------------------------------------| 
B|---------------------------------------------------------------------------| 
G|---------------------------------------------------------------------------| 
D|2222-5555-1010-77-9999-----------------------------------------------------| 
A|2222-5555-1010-77-9999-----------------------------------------------------| 
E|0000-3333--8-8-55-7777-----------------------------------------------------| 
 

   Ns lutamos, robs gigantes 

 
E|---------------------------------------------------------------------------| 
B|---------------------------------------------------------------------------| 
G|---------------------------------------------------------------------------| 
D|2222-5555-1010-77-9999-----------------------------------------------------| 
A|2222-5555-1010-77-9999-----------------------------------------------------| 
E|0000-3333--8-8-55-7777-----------------------------------------------------| 
 

   Todos se amarram robs gigantes 

 
E|---------------------------------------------------------------------------| 
B|---------------------------------------------------------------------------| 
G|---------------------------------------------------------------------------| 
D|2222-5555-1010-77-88-99----------------------------------------------------| 
A|2222-5555-1010-77-88-99----------------------------------------------------| 
E|0000-3333--8-8-55-66-77----------------------------------------------------| 
 

 as gatas tambem, robs gigantes!!! 

E|---------------------------------------------3---5--7----------------------| 
B|--------------10-12--------------or----------------------------------------| 
G|---1512------12-12---------------------------------------------------------| 
D|---------------------------------------------------------------------------| 
A|---------------------------------------------------------------------------| 
E|---------------------------------------------------------------------------| 
	  

Search Paypal
auto scroll beats size up size down change color hide chords drawings
tab show chords e-chords YouTube Clip e-chords hide all tabs e-chords go to top tab