Temas de TV

home > Temas de TV

Jogos Da Seleção Tab

Temas de TV

Difficulty: nolevelnolevel

by gustsilva

tuner correct add songbook print version text version save to e-mail
chordsukulelecavacokeyboardtabbassdrumsharmonicsflute Guitar Pro
chords

Jogos Da Seleção

  		Música: Coração Verde e Amarelo 

Data: 4 de Janeiro 2000 

 
e|--------------2--4--5---7--5---9----5-------------------| 
B|---2--3---5-----------------------------7---5---------5-| 
G|------------------------------------------------6--7----| 
D|--------------------------------------------------------| 
A|--------------------------------------------------------| 
E|--------------------------------------------------------| 
 

"Na torcida são milhões de treinadores cada um..." 

 
e|---2---4--5---7-5---4--3--2-| 
B|----------------------------| 
G|----------------------------| 
D|----------------------------| 
A|----------------------------| 
E|----------------------------| 
 

"...ja escalou a seleção"  

 
e|--10-10-------------10----10--9----7--6-----9----7-----5-----4--12-| 
B|-----------7--7-------------------------------------------7--------| 
G|-------------------------------------------------------------------| 
D|-------------------------------------------------------------------| 
A|-------------------------------------------------------------------| 
E|-------------------------------------------------------------------| 
 

"...o verde e o amarelo são as cores que a gente..." 

 
e|---------14----14--12------12---| 
B|--13-------------------14-------| 
G|--------------------------------| 
D|--------------------------------| 
A|--------------------------------| 
E|--------------------------------| 
 

       "...pinta no coração," 

 
e|----------2--4-5--7--5--9---5-----------| 
B|-2-3--5-------------------------7--5----| 
G|----------------------------------------| 
D|----------------------------------------| 
A|----------------------------------------| 
E|----------------------------------------| 
 

  "..a torcida fica alegre e se agita" 

 
e|--------5---7--9--7-----12---10--9-| 
B|-10-9-8----------------------------| 
G|-----------------------------------| 
D|-----------------------------------| 
A|-----------------------------------| 
E|-----------------------------------| 
 

   "...e grita Brasil é campeao..." 

 
e|-17--17-------17---16---14--|--12------12--10-9---| 
B|---------16-----------------|------7--------------| 
G|----------------------------|---------------------| 
D|----------------------------|---------------------| 
A|----------------------------|---------------------| 
E|----------------------------|---------------------| 
 

  " o toque de bola é nossa escola" 

 
e|--9--7---6--7---14-----12------|------12------9----12-----9-| 
B|---------------------------10--|----------------------------| 
G|-------------------------------|----------------------------| 
D|-------------------------------|----------------------------| 
A|-------------------------------|----------------------------| 
E|-------------------------------|----------------------------| 
 

 "...nossa maior tradição, eu sei que vou..." 

 
e|--5--7--9--7---5---9-|---12-----9---12--------| 
B|---------------------|--------------------14--| 
G|---------------------|------------------------| 
D|---------------------|------------------------| 
A|---------------------|------------------------| 
E|---------------------|------------------------| 
 

  "...vou do jeito que eu sei, de gol em gol..." 

 
e|--5--7----9--7--5--10--|---14--------14-------| 
B|-----------------------|--------15--------15--| 
G|-----------------------|----------------------| 
D|-----------------------|----------------------| 
A|-----------------------|----------------------| 
E|-----------------------|----------------------| 
 

  "...com direito a replay, eu sei que vou..." 

 
e|---7----9---10---12--14---16-----14-------14--| 
B|-------------------------------------14-------| 
G|----------------------------------------------| 
D|----------------------------------------------| 
A|----------------------------------------------| 
E|----------------------------------------------| 
 

  "...com o coração batendo a mil..." 

 
e|---14----12--10--9----7---12-----|---12--------12--------| 
B|------------------------------10-|--------14---------14--| 
G|---------------------------------|-----------------------| 
D|---------------------------------|-----------------------| 
A|---------------------------------|-----------------------| 
E|---------------------------------|-----------------------| 
 

  "..tenta que é penta Brasil...eu sei que vou..." 

 
e|---5--7---9---7--5---9---|----12-----9-----12-----9-| 
B|-------------------------|--------------------------| 
G|-------------------------|--------------------------| 
D|-------------------------|--------------------------| 
A|-------------------------|--------------------------| 
E|-------------------------|--------------------------| 
 

  "...vou do jeito que eu sei, de gol em gol..." 

 
e|-------7--9---7--5--10--|---14-------14------| 
B|---10-------------------|--------15------15--| 
G|------------------------|--------------------| 
D|------------------------|--------------------| 
A|------------------------|--------------------| 
E|------------------------|--------------------| 
 

  "...com direito a replay, eu sei que vou..." 

 
e|---7--9---10---12----14----16---14-----------14---| 
B|----------------------------------------14--------| 
G|--------------------------------------------------| 
D|--------------------------------------------------| 
A|--------------------------------------------------| 
E|--------------------------------------------------| 
 

  "...eu sei que vou co o coração batendo a mil..." 

 
e|---14--12---10---9----7--12--------| 
B|-------------------------------10--| 
G|-----------------------------------| 
D|-----------------------------------| 
A|-----------------------------------| 
E|-----------------------------------| 
 

  "...tenta que é penta Brasil." 
	  

Search Paypal
auto scroll beats size up size down change color hide chords drawings
tab show chords e-chords YouTube Clip e-chords hide all tabs e-chords go to top tab