Temas de TV

home > Temas de TV

Jaspion Tab

Temas de TV

Difficulty: nolevelnolevel

by gustsilva

tuner correct add songbook print version text version save to e-mail
chordsukulelecavacokeyboardtabbassdrumsharmonicsflute Guitar Pro
chords

Jaspion

  		Intro 
 
e|---5h7h8-0----|---5h7h8-0----|------------------|-------------------| 
B|--------------|--------------|------------------|-------------------| 
G|--------------|--------------|------------------|-------------------| 
D|--------------|--------------|------------------|------0-2--2-------| 
A|--------------|--------------|--0-0-----0-0-----|--0-3------2-------| 
E|--------------|--------------|------------------|-----------0-------| 
 



 
e|---8-7-8-----|-----------7-7-8-7-8--|--------7-8---|--7--7-10-7------------------| 
B|-------------|-----10-10------------|-----10-------|------------8-------8-8-10---| 
G|-------------|-9-9------------------|-9-9----------|--------------10-10----------| 
D|-------------|----------------------|--------------|-----------------------------| 
A|-------------|----------------------|--------------|-----------------------------| 
E|-------------|----------------------|--------------|-----------------------------| 
 



 
e|-----------------7-8|-------------7-8--|---------------------|-------------8-7---| 
B|--10-10-10-10-10----|---8-8-8-8-8------|---------------------|------8-8-10-------| 
G|--------------------|------------------|---10-10-9-9-7-7-9-9-|10-10--------------| 
D|--------------------|------------------|---------------------|-------------------| 
A|--------------------|------------------|---------------------|-------------------| 
E|--------------------|------------------|---------------------|-------------------| 
 



 
e|------8-12-10----10-|-13-12-10-10-12-8-|----8-7-------7---8--|-10-10--10-13-13-12| 
B|---10---------------|------------------|--------10-10--------|-------------------| 
G|-9------------------|------------------|---------------------|-------------------| 
D|--------------------|------------------|---------------------|-------------------| 
A|--------------------|------------------|---------------------|-------------------| 
E|--------------------|------------------|---------------------|-------------------| 
 



 
e|--12-8--------------|-7-7-8-7----------|--------7-8-----|-7-8-10-7-8-10-7-8-10-10| 
B|-------10------10-10|---------10-------|-----10---------|------------------------| 
G|-----------9-9------|------------------|-9-9------------|------------------------| 
D|--------------------|------------------|----------------|------------------------| 
A|--------------------|------------------|----------------|------------------------| 
E|--------------------|------------------|----------------|------------------------| 
 



 
e|-9-10-12---12-8-----| 
B|----------------10--| 
G|--------------------| 
D|--------------------| 
A|--------------------| 
E|--------------------| 
 


depois comeša de novo desde a Introducao..... 
	  

Search Paypal
auto scroll beats size up size down change color hide chords drawings
tab show chords e-chords YouTube Clip e-chords hide all tabs e-chords go to top tab