Temas de TV

home > Temas de TV

Globo No Natal E No Ano Novo Tab

Temas de TV

Difficulty: nolevelnolevel

by gustsilva

tuner correct add songbook print version text version save to e-mail
chordsukulelecavacokeyboardtabbassdrumsharmonicsflute Guitar Pro
chords

Globo No Natal E No Ano Novo

  		Data: 3 de Janeiro 2000 

 
e|--8-8--5----------------------------------------------| 
B|-----------8--6-8-8--6--3--1--3-3---1-----------------| 
G|----------------------------------------2--0--2-------| 
D|------------------------------------------------------| 
A|------------------------------------------------------| 
E|------------------------------------------------------| 
 

    "Hoje é um novo dia de um novo tempo que começou" 

 
e|----0--3-4--8-8-----------8-8---------8-8---------8-----| 
B|-1----------------9-8-6---------6--9-------9-8-6--------| 
G|--------------------------------------------------------| 
D|--------------------------------------------------------| 
A|--------------------------------------------------------| 
E|--------------------------------------------------------| 
 

  "Todos nossos sonhos serão verdade, o fututro já começou" 

 
e|--------8-9-8------------8-9-8-----------6--8-8----4-6-6-----| 
B|--6--9---------9---6--9---------9--6--9---------(6)----------| 
G|-------------------------------------------------------------| 
D|-------------------------------------------------------------| 
A|-------------------------------------------------------------| 
E|-------------------------------------------------------------| 
 

  "Hoje a festa é sua hoje a festa é nossa é de quem vier de quem quiser" 

 
e|--8-9-8----------8-9-8----------6--8-8----4-6-6------------------| 
B|---------9--6--9-------9--6--9----------6------------------------| 
G|-----------------------------------------------------------------| 
D|-----------------------------------------------------------------| 
A|-----------------------------------------------------------------| 
E|-----------------------------------------------------------------| 
 

   "A festa é sua hoje a festa é nossa é de quem vier de quem quiser..." 
	  

Search Paypal
auto scroll beats size up size down change color hide chords drawings
tab show chords e-chords YouTube Clip e-chords hide all tabs e-chords go to top tab