Temas de TV

home > Temas de TV

Game Of Thrones Theme Tab

Temas de TV

Difficulty: ExpertExpert

by gustsilva

tuner correct add songbook print version text version save to e-mail
chordsukulelecavacokeyboardtabbassdrumsharmonicsflute Guitar Pro
chords

Game Of Thrones Theme

  		


 
      Q    Q    E   E  Q    Q    E   E     Q    Q    E   E  Q    Q    E   E 
E|--0----------------0----------------|--0----------------0----------------| 
B|------------1h--3------------1h--3--|------------1h--3------------1h--3--| 
G|-------2----------------2-----------|-------2----------------2-----------| 
D|------------------------------------|------------------------------------| 
A|--0----------------0----------------|--0----------------0----------------| 
E|------------------------------------|------------------------------------| 
 


 
   Q    Q    E   E  Q    Q    E   E     Q    Q    E   E  Q    Q    E   E 
--0----------------0----------------|--0----------------0----------------| 
------------2h--3------------2h--3--|------------2h--3------------2h--3--| 
-------2----------------2-----------|-------2----------------2-----------| 
------------------------------------|------------------------------------| 
--0----------------0----------------|--0----------------0----------------| 
------------------------------------|------------------------------------| 
 


  Cm 
 
   Q    Q    Q    Q    Q    Q       E   E  Q    Q    Q    Q    E   E 
--0-----------------------------|---------0--------------------------| 
--------------------------------|--1h--3----------------------1h--3--| 
-----------------2---------2----|-------------------2----------------| 
------------2---------2---------|--------------2---------2-----------| 
-------0---------0--------------|--0----------------0----------------| 
--0-----------------------------|------------------------------------| 
 


  Q    Q    E   E  Q    Q    E   E     Q    Q    E   E  Q    Q    Q 
 
------------------------------------|----------------------------------| 
--0----------------0----------------|--0----------------0--------------| 
------------0h--2------------0h--2--|------------0h--2------------0----| 
-------2----------------2-----------|-------2----------------2---------| 
------------------------------------|----------------------------------| 
--0----------------0----------------|--0----------------0--------------| 
 


  Q    Q    Q    Q    Q    Q       E   E  Q    Q    Q    Q    Q 
 
--------------------------------|----------------------------------| 
--3-----------------------------|--1p--0--3------------------------| 
-----------------0--------------|-------------------0--------------| 
------------0--------------0----|-----------------------------0----| 
-------2--------------2---------|--------------2---------2---------| 
--3--------------3--------------|--3----------------3--------------| 
 


  E   E  Q    E   E  Q    Q    E   E     Q    Q    E   E  Q    Q    Q 
 
--------------------------------------|----------------------------------| 
--1p--0-------------------------------|----------------------------------| 
---------2-----------2----------------|--2----------------2---------2----| 
--0-----------3h--5-------2----3h--5--|-------2----3h--5-------2---------| 
---------0-----------0----------------|--0----------------0--------------| 
--------------------------------------|----------------------------------| 
 


 
   Q    Q    Q    Q    Q    Q       E   E  Q    Q    Q    Q    E   E 
--0-----------------------------|---------0--------------------------| 
--------------------------------|--1h--3----------------------1h--3--| 
------------2----2---------2----|-------------------2----------------| 
-------2--------------2---------|--------------2---------2-----------| 
--0--------------0--------------|--0----------------0----------------| 
--------------------------------|------------------------------------| 
 


  Q    Q    E   E  Q    Q    E   E     Q    Q    E   E  Q    Q    Q 
 
------------------------------------|----------------------------------| 
--0----------------0----------------|--0----------------0--------------| 
------------0h--2------------0h--2--|------------0h--2------------0----| 
-------2----------------2-----------|-------2----------------2---------| 
------------------------------------|----------------------------------| 
--0----------------0----------------|--0----------------0--------------| 
 


  Q    Q    Q    Q    Q    Q       E   E  Q    Q    Q    Q    Q 
 
--------------------------------|----------------------------------| 
--3-----------------------------|--1p--0--3------------------------| 
-----------------0--------------|-------------------0--------------| 
------------0--------------0----|-----------------------------0----| 
-------2--------------2---------|--------------2---------2---------| 
--3--------------3--------------|--3----------------3--------------| 
 


  E   E  Q    E   E  Q    Q    E   E     Q    Q    E   E  Q    Q    Q 
 
--------------------------------------|----------------------------------| 
--1p--0-------------------------------|----------------------------------| 
---------2-----------2----------------|--2----------------2---------2----| 
--------------3h--5-------2----3h--5--|-------2----3h--5-------2---------| 
--0------0-----------0----------------|--0----------------0--------------| 
--------------------------------------|----------------------------------| 
 


 
   Q    Q    Q    Q    Q    Q       E   E  Q    Q    Q    Q    E   E 
--0-----------------------------|---------0--------------------------| 
--------------------------------|--1h--3----------------------1h--3--| 
------------2----2---------2----|-------------------2----------------| 
-------2--------------2---------|--------------2---------2-----------| 
--0--------------0--------------|--0----------------0----------------| 
--------------------------------|------------------------------------| 
 


  Q    Q    E   E  Q    Q    E   E     Q    Q    E   E  Q    Q    Q 
 
------------------------------------|----------------------------------| 
--0----------------0----------------|--0----------------0--------------| 
------------0h--2------------0h--2--|------------0h--2------------0----| 
-------2----------------2-----------|-------2----------------2---------| 
------------------------------------|----------------------------------| 
--0----------------0----------------|--0----------------0--------------| 
 


  Q    Q    Q    Q    Q    Q       Q.     Q.     Q.     Q. 
 
--------------------------------|------------------------------| 
--3-----------------------------|--0------1------0-------------| 
-----------------0--------------|-----------------------0------| 
------------0--------------0----|------------------------------| 
-------2--------------2---------|---------3------2-------------| 
--3--------------3--------------|--3--------------------3------| 
 


  Q    Q    E   E  Q    Q    E   E     Q    Q    E   E  Q    Q    Q 
 
------------------------------------|----------------------------------| 
------------------------------------|----------------------------------| 
--2----------------2----------------|--2----------------2---------0----| 
-------2----3h--5-------2----3h--5--|-------2----3h--5-------2---------| 
--0----------------0----------------|--0----------------0--------------| 
------------------------------------|----------------------------------| 
 


  ^                                ^ 
  Q    Q    Q    Q    Q    Q       Q    Q    Q    Q    Q    Q 
 
--5--------------5--------------|--3-----------------------------| 
--1---------1---------1---------|--1--------------1--------------| 
--2----2-------------------2----|--0---------0---------0---------| 
--------------------------------|-------2-------------------0----| 
--------------------------------|--3--------------3--------------| 
--1--------------1--------------|--------------------------------| 
 


  ^ 
  Q    Q    Q    Q    Q    Q       Q    Q    Q    Q    Q    Q 
 
--1--------------1--------------|--0-----------------------------| 
--3-------------------3---------|--1--------------1--------------| 
--2---------2--------------2----|--2---------2---------2---------| 
--0----0---------0--------------|-------2------------------------| 
--------------------------------|--0--------------0--------------| 
--------------------------------|---------------------------0----| 
 


  Q    Q    Q    Q    Q    Q       Q    Q    Q    Q    Q    Q 
 
--------------------------------|--------------------------------| 
-----------------1--------------|--1--------------3--------------| 
--2-------------------2---------|--2---------2----0---------0----| 
--3---------3--------------0----|--0----0--------------2---------| 
-------3------------------------|--------------------------------| 
--1--------------1--------------|-----------------0--------------| 
 


  Q    Q    E   E  Q    Q    E   E     Q    Q    E   E  Q    Q    Q 
 
--0---------------------------------|----------------------------------| 
------------------------------------|----------------------------------| 
-------------------2----------------|--2----------------2---------0----| 
-------2----3h--5-------2----3h--5--|-------2----3h--5-------2---------| 
--0----------------0----------------|--0----------------0--------------| 
------------------------------------|----------------------------------| 
 


  ^                                ^ 
  Q    Q    Q    Q    Q    Q       Q    Q    Q    Q    Q    Q 
 
--5--------------5--------------|--3-----------------------------| 
--1---------1---------1---------|--1--------------1--------------| 
--2----2-------------------2----|--0---------0---------0---------| 
--------------------------------|-------2-------------------0----| 
--------------------------------|--3--------------3--------------| 
--1--------------1--------------|--------------------------------| 
 


  ^ 
  Q    Q    Q    Q    Q    Q       Q    Q    Q    Q    Q    Q 
 
--1--------------1--------------|--0-----------------------------| 
--3-------------------3---------|--1--------------1--------------| 
--2---------2--------------2----|--2---------2---------2---------| 
--0----0---------0--------------|-------2------------------------| 
--------------------------------|--0--------------0--------------| 
--------------------------------|---------------------------0----| 
 


  Q    Q    Q    Q    Q    Q       Q    Q    Q    Q    Q    Q 
 
--------------------------------|--------------------------------| 
-----------------1--------------|--1--------------0--------------| 
--2-------------------2---------|--2---------2----0---------0----| 
--3---------3--------------0----|--0----0--------------2---------| 
-------3------------------------|--------------------------------| 
--1--------------1--------------|-----------------0--------------| 
 


  Q    Q    E   E  Q    Q    E   E     Q    Q    E   E  Q    Q    Q 
 
------------------------------------|----------------------------------| 
------------------------------------|----------------------------------| 
--2----------------2----------------|--2----------------2--------------| 
-------2----3h--5-------2----3h--5--|-------2----3h--5-------2---------| 
--0----------------0----------------|--0----------------0--------------| 
------------------------------------|----------------------------------| 
 


  Q    Q    E   E  Q    Q    E   E     Q    Q    E   E  H. 
 
--5----------------5----------------|--5----------------5------------|| 
-------5----6h--8-------5----6h--8--|-------5----6h--8---------------|| 
------------------------------------|--------------------------------|| 
------------------------------------|--------------------------------|| 
------------------------------------|--------------------------------|| 
------------------------------------|--------------------------------|| 
	  

Search Paypal
auto scroll beats size up size down change color hide chords drawings
tab show chords e-chords YouTube Clip e-chords hide all tabs e-chords go to top tab