Temas de TV

home > Temas de TV

Família Adams Tab

Temas de TV

Difficulty: nolevelnolevel

by gustsilva

tuner correct add songbook print version text version save to e-mail
chordsukulelecavacokeyboardtabbassdrumsharmonicsflute Guitar Pro
chords

Família Adams

  		 
E|---------------------------------------------| 
B|---------------------------------------------| 
G|---------------------------------------------| 
D|---------------------------------------------| 
A|---0-2-3--0-2-4-5--0-2-4-5-0-2-4-5---0-2-3---| 
E|-3---------------------------------3---------| 
 

 
E|---------------------------------------------| 
B|---------------------------------------------| 
G|---------------------------------------------| 
D|-----2----------------------------2----------| 
A|---3--3-0---5----2-5-2-0---3----3---3-0---5--| 
E|-3--------3----3---------3----3---------3----| 
 

E|--------------------------------------------| 
B|--------------------------------------------| 
G|--------------------------------------------| 
D|--------------------------------------------| 
A|-0--------0-2-3-----------------------------| 
E|----3-3-3-----------------------------------| 
	  

Search Paypal
auto scroll beats size up size down change color hide chords drawings
tab show chords e-chords YouTube Clip e-chords hide all tabs e-chords go to top tab