Temas de TV

home > Temas de TV

Criança Esperança Tab

Temas de TV

Difficulty: nolevelnolevel

by gustsilva

tuner correct add songbook print version text version save to e-mail
chordsukulelecavacokeyboardtabbassdrumsharmonicsflute Guitar Pro
chords

Criança Esperança

  		 
e|--------4-----4-4-4-4-5-4-4------4-4-4-4-5-4------------------------- 
b|----5-7---------------------------------------7-5-4-7-5-------------- 
g|--4-------4-4---------------5--5------------------------------------- 
d|--------------------------------------------------------------------- 
a|--------------------------------------------------------------------- 
E|--------------------------------------------------------------------- 
 

e|--------------4----------------4------------------------------------- 
b|-4-7-5-4-5------7-5-7---5-7-5-----7-5-7------------------------------ 
g|-----------4--------------------------------------------------------- 
d|--------------------------------------------------------------------- 
a|--------------------------------------------------------------------- 
E|--------------------------------------------------------------------- 
	  

Search Paypal
auto scroll beats size up size down change color hide chords drawings
tab show chords e-chords YouTube Clip e-chords hide all tabs e-chords go to top tab